  0
SECTION
  2
HEADER
  9
$ACADVER
  1
AC1009
  9
$FILLMODE
 70
1
  9
$EXTMIN
 10
-3.9680
 20
-4.0192
 30
0.0000
  9
$EXTMAX
 10
68.9407
 20
48.4863
 30
0.0000
  0
ENDSEC
  0
SECTION
  2
TABLES
  0
TABLE
  2
LTYPE
 70
1
  0
LTYPE
  2
CONTINUOUS
 70
64
  3
Solid line
 72
65
 73
0
 40
0
  0
ENDTAB
  0
TABLE
  2
LAYER
 70
255
  0
LAYER
  2
17
 70
64
 62
92
  6
CONTINUOUS
  0
LAYER
  2
19
 70
64
 62
52
  6
CONTINUOUS
  0
LAYER
  2
20
 70
64
 62
7
  6
CONTINUOUS
  0
LAYER
  2
21
 70
64
 62
253
  6
CONTINUOUS
  0
LAYER
  2
37
 70
64
 62
253
  6
CONTINUOUS
  0
LAYER
  2
38
 70
64
 62
253
  6
CONTINUOUS
  0
LAYER
  2
45
 70
64
 62
253
  6
CONTINUOUS
  0
LAYER
  2
46
 70
64
 62
132
  6
CONTINUOUS
  0
LAYER
  2
47
 70
64
 62
253
  6
CONTINUOUS
  0
LAYER
  2
48
 70
64
 62
253
  6
CONTINUOUS
  0
LAYER
  2
49
 70
64
 62
253
  6
CONTINUOUS
  0
LAYER
  2
50
 70
64
 62
253
  6
CONTINUOUS
  0
LAYER
  2
51
 70
64
 62
253
  6
CONTINUOUS
  0
LAYER
  2
101
 70
64
 62
253
  6
CONTINUOUS
  0
LAYER
  2
102
 70
64
 62
253
  6
CONTINUOUS
  0
ENDTAB
  0
ENDSEC
  0
SECTION
  2
BLOCKS
  0
BLOCK
  8
0
  2
RECT
 70
64
 10
0.0000
 20
0.0000
 30
0.0000
  3
RECT
  0
SOLID
  8
0
 10
-0.5000
 20
-0.5000
 30
0.0000
 11
0.5000
 21
-0.5000
 31
0.0000
 12
-0.5000
 22
0.5000
 32
0.0000
 13
0.5000
 23
0.5000
 33
0.0000
  0
ENDBLK
  8
0
  0
BLOCK
  8
0
  2
PIE
 70
64
 10
0.0000
 20
0.0000
 30
0.0000
  3
PIE
  0
POLYLINE
  8
0
 66
1
 10
0.0000
 20
0.0000
 30
0.0000
 40
0.5000
 41
0.5000
 70
0
  0
VERTEX
  8
0
 10
0.0000
 20
-0.2500
 30
0.0000
 42
1.0000
  0
VERTEX
  8
0
 10
0.0000
 20
0.2500
 30
0.0000
 42
1.0000
  0
VERTEX
  8
0
 10
0.0000
 20
-0.2500
 30
0.0000
  0
SEQEND
  8
0
  0
ENDBLK
  8
0
  0
BLOCK
  8
0
  2
OCTAGONP
 70
64
 10
0.0000
 20
0.0000
 30
0.0000
  3
OCTAGONP
  0
POLYLINE
  8
0
 66
1
 10
0.0000
 20
0.0000
 30
0.0000
 40
0.5000
 41
0.5000
 70
0
  0
VERTEX
  8
0
 10
-0.2500
 20
-0.1036
 30
0.0000
  0
VERTEX
  8
0
 10
-0.2500
 20
0.1036
 30
0.0000
  0
VERTEX
  8
0
 10
-0.1036
 20
0.2500
 30
0.0000
  0
VERTEX
  8
0
 10
0.1036
 20
0.2500
 30
0.0000
  0
VERTEX
  8
0
 10
0.2500
 20
0.1036
 30
0.0000
  0
VERTEX
  8
0
 10
0.2500
 20
-0.1036
 30
0.0000
  0
VERTEX
  8
0
 10
0.1036
 20
-0.2500
 30
0.0000
  0
VERTEX
  8
0
 10
-0.1036
 20
-0.2500
 30
0.0000
  0
VERTEX
  8
0
 10
-0.2500
 20
-0.1036
 30
0.0000
  0
VERTEX
  8
0
 10
-0.2500
 20
0.1036
 30
0.0000
  0
SEQEND
  8
0
  0
ENDBLK
  8
0
  0
BLOCK
  8
0
  2
SQUAREP
 70
64
 10
0.0000
 20
0.0000
 30
0.0000
  3
SQUAREP
  0
SOLID
  8
0
 10
-0.5000
 20
-0.5000
 30
0.0000
 11
0.5000
 21
-0.5000
 31
0.0000
 12
-0.5000
 22
0.5000
 32
0.0000
 13
0.5000
 23
0.5000
 33
0.0000
  0
ENDBLK
  8
0
  0
BLOCK
  8
0
  2
ROUNDP
 70
64
 10
0.0000
 20
0.0000
 30
0.0000
  3
ROUNDP
  0
POLYLINE
  8
0
 66
1
 10
0.0000
 20
0.0000
 30
0.0000
 40
0.5000
 41
0.5000
 70
0
  0
VERTEX
  8
0
 10
0.0000
 20
-0.2500
 30
0.0000
 42
1.0000
  0
VERTEX
  8
0
 10
0.0000
 20
0.2500
 30
0.0000
 42
1.0000
  0
VERTEX
  8
0
 10
0.0000
 20
-0.2500
 30
0.0000
  0
SEQEND
  8
0
  0
ENDBLK
  8
0
  0
BLOCK
  8
0
  2
ANNULUSP
 70
64
 10
0.0000
 20
0.0000
 30
0.0000
  3
ANNULUSP
  0
POLYLINE
  8
0
 66
1
 10
0.0000
 20
0.0000
 30
0.0000
 40
0.5000
 41
0.5000
 70
0
  0
VERTEX
  8
0
 10
0.0000
 20
-0.2500
 30
0.0000
 42
1.0000
  0
VERTEX
  8
0
 10
0.0000
 20
0.2500
 30
0.0000
 42
1.0000
  0
VERTEX
  8
0
 10
0.0000
 20
-0.2500
 30
0.0000
  0
SEQEND
  8
0
  0
ENDBLK
  8
0
  0
BLOCK
  8
0
  2
THERMALP
 70
64
 10
0.0000
 20
0.0000
 30
0.0000
  3
THERMALP
  0
POLYLINE
  8
0
 66
1
 10
0.0000
 20
0.0000
 30
0.0000
 40
0.1000
 41
0.1000
 70
0
  0
VERTEX
  8
0
 10
-0.2379
 20
0.4500
 30
0.0000
  0
VERTEX
  8
0
 10
0.2379
 20
0.4500
 30
0.0000
  0
SEQEND
  8
0
  0
POLYLINE
  8
0
 66
1
 10
0.0000
 20
0.0000
 30
0.0000
 40
0.0500
 41
0.0500
 70
0
  0
VERTEX
  8
0
 10
0.2379
 20
0.4250
 30
0.0000
 42
1.0000
  0
VERTEX
  8
0
 10
0.2379
 20
0.4750
 30
0.0000
  0
SEQEND
  8
0
  0
POLYLINE
  8
0
 66
1
 10
0.0000
 20
0.0000
 30
0.0000
 40
0.0500
 41
0.0500
 70
0
  0
VERTEX
  8
0
 10
-0.2379
 20
0.4750
 30
0.0000
 42
1.0000
  0
VERTEX
  8
0
 10
-0.2379
 20
0.4250
 30
0.0000
  0
SEQEND
  8
0
  0
POLYLINE
  8
0
 66
1
 10
0.0000
 20
0.0000
 30
0.0000
 40
0.1000
 41
0.1000
 70
0
  0
VERTEX
  8
0
 10
0.4500
 20
0.2379
 30
0.0000
  0
VERTEX
  8
0
 10
0.4500
 20
-0.2379
 30
0.0000
  0
SEQEND
  8
0
  0
POLYLINE
  8
0
 66
1
 10
0.0000
 20
0.0000
 30
0.0000
 40
0.0500
 41
0.0500
 70
0
  0
VERTEX
  8
0
 10
0.4250
 20
-0.2379
 30
0.0000
 42
1.0000
  0
VERTEX
  8
0
 10
0.4750
 20
-0.2379
 30
0.0000
  0
SEQEND
  8
0
  0
POLYLINE
  8
0
 66
1
 10
0.0000
 20
0.0000
 30
0.0000
 40
0.0500
 41
0.0500
 70
0
  0
VERTEX
  8
0
 10
0.4750
 20
0.2379
 30
0.0000
 42
1.0000
  0
VERTEX
  8
0
 10
0.4250
 20
0.2379
 30
0.0000
  0
SEQEND
  8
0
  0
POLYLINE
  8
0
 66
1
 10
0.0000
 20
0.0000
 30
0.0000
 40
0.1000
 41
0.1000
 70
0
  0
VERTEX
  8
0
 10
0.2379
 20
-0.4500
 30
0.0000
  0
VERTEX
  8
0
 10
-0.2379
 20
-0.4500
 30
0.0000
  0
SEQEND
  8
0
  0
POLYLINE
  8
0
 66
1
 10
0.0000
 20
0.0000
 30
0.0000
 40
0.0500
 41
0.0500
 70
0
  0
VERTEX
  8
0
 10
-0.2379
 20
-0.4250
 30
0.0000
 42
1.0000
  0
VERTEX
  8
0
 10
-0.2379
 20
-0.4750
 30
0.0000
  0
SEQEND
  8
0
  0
POLYLINE
  8
0
 66
1
 10
0.0000
 20
0.0000
 30
0.0000
 40
0.0500
 41
0.0500
 70
0
  0
VERTEX
  8
0
 10
0.2379
 20
-0.4750
 30
0.0000
 42
1.0000
  0
VERTEX
  8
0
 10
0.2379
 20
-0.4250
 30
0.0000
  0
SEQEND
  8
0
  0
POLYLINE
  8
0
 66
1
 10
0.0000
 20
0.0000
 30
0.0000
 40
0.1000
 41
0.1000
 70
0
  0
VERTEX
  8
0
 10
-0.4500
 20
-0.2379
 30
0.0000
  0
VERTEX
  8
0
 10
-0.4500
 20
0.2379
 30
0.0000
  0
SEQEND
  8
0
  0
POLYLINE
  8
0
 66
1
 10
0.0000
 20
0.0000
 30
0.0000
 40
0.0500
 41
0.0500
 70
0
  0
VERTEX
  8
0
 10
-0.4250
 20
0.2379
 30
0.0000
 42
1.0000
  0
VERTEX
  8
0
 10
-0.4750
 20
0.2379
 30
0.0000
  0
SEQEND
  8
0
  0
POLYLINE
  8
0
 66
1
 10
0.0000
 20
0.0000
 30
0.0000
 40
0.0500
 41
0.0500
 70
0
  0
VERTEX
  8
0
 10
-0.4750
 20
-0.2379
 30
0.0000
 42
1.0000
  0
VERTEX
  8
0
 10
-0.4250
 20
-0.2379
 30
0.0000
  0
SEQEND
  8
0
  0
ENDBLK
  8
0
  0
BLOCK
  8
0
  2
OCTAGONV
 70
64
 10
0.0000
 20
0.0000
 30
0.0000
  3
OCTAGONV
  0
POLYLINE
  8
0
 66
1
 10
0.0000
 20
0.0000
 30
0.0000
 40
0.5000
 41
0.5000
 70
0
  0
VERTEX
  8
0
 10
-0.2500
 20
-0.1036
 30
0.0000
  0
VERTEX
  8
0
 10
-0.2500
 20
0.1036
 30
0.0000
  0
VERTEX
  8
0
 10
-0.1036
 20
0.2500
 30
0.0000
  0
VERTEX
  8
0
 10
0.1036
 20
0.2500
 30
0.0000
  0
VERTEX
  8
0
 10
0.2500
 20
0.1036
 30
0.0000
  0
VERTEX
  8
0
 10
0.2500
 20
-0.1036
 30
0.0000
  0
VERTEX
  8
0
 10
0.1036
 20
-0.2500
 30
0.0000
  0
VERTEX
  8
0
 10
-0.1036
 20
-0.2500
 30
0.0000
  0
VERTEX
  8
0
 10
-0.2500
 20
-0.1036
 30
0.0000
  0
VERTEX
  8
0
 10
-0.2500
 20
0.1036
 30
0.0000
  0
SEQEND
  8
0
  0
ENDBLK
  8
0
  0
BLOCK
  8
0
  2
SQUAREV
 70
64
 10
0.0000
 20
0.0000
 30
0.0000
  3
SQUAREV
  0
SOLID
  8
0
 10
-0.5000
 20
-0.5000
 30
0.0000
 11
0.5000
 21
-0.5000
 31
0.0000
 12
-0.5000
 22
0.5000
 32
0.0000
 13
0.5000
 23
0.5000
 33
0.0000
  0
ENDBLK
  8
0
  0
BLOCK
  8
0
  2
ROUNDV
 70
64
 10
0.0000
 20
0.0000
 30
0.0000
  3
ROUNDV
  0
POLYLINE
  8
0
 66
1
 10
0.0000
 20
0.0000
 30
0.0000
 40
0.5000
 41
0.5000
 70
0
  0
VERTEX
  8
0
 10
0.0000
 20
-0.2500
 30
0.0000
 42
1.0000
  0
VERTEX
  8
0
 10
0.0000
 20
0.2500
 30
0.0000
 42
1.0000
  0
VERTEX
  8
0
 10
0.0000
 20
-0.2500
 30
0.0000
  0
SEQEND
  8
0
  0
ENDBLK
  8
0
  0
BLOCK
  8
0
  2
ANNULUSV
 70
64
 10
0.0000
 20
0.0000
 30
0.0000
  3
ANNULUSV
  0
POLYLINE
  8
0
 66
1
 10
0.0000
 20
0.0000
 30
0.0000
 40
0.5000
 41
0.5000
 70
0
  0
VERTEX
  8
0
 10
0.0000
 20
-0.2500
 30
0.0000
 42
1.0000
  0
VERTEX
  8
0
 10
0.0000
 20
0.2500
 30
0.0000
 42
1.0000
  0
VERTEX
  8
0
 10
0.0000
 20
-0.2500
 30
0.0000
  0
SEQEND
  8
0
  0
ENDBLK
  8
0
  0
BLOCK
  8
0
  2
THERMALV
 70
64
 10
0.0000
 20
0.0000
 30
0.0000
  3
THERMALV
  0
POLYLINE
  8
0
 66
1
 10
0.0000
 20
0.0000
 30
0.0000
 40
0.1000
 41
0.1000
 70
0
  0
VERTEX
  8
0
 10
-0.2379
 20
0.4500
 30
0.0000
  0
VERTEX
  8
0
 10
0.2379
 20
0.4500
 30
0.0000
  0
SEQEND
  8
0
  0
POLYLINE
  8
0
 66
1
 10
0.0000
 20
0.0000
 30
0.0000
 40
0.0500
 41
0.0500
 70
0
  0
VERTEX
  8
0
 10
0.2379
 20
0.4250
 30
0.0000
 42
1.0000
  0
VERTEX
  8
0
 10
0.2379
 20
0.4750
 30
0.0000
  0
SEQEND
  8
0
  0
POLYLINE
  8
0
 66
1
 10
0.0000
 20
0.0000
 30
0.0000
 40
0.0500
 41
0.0500
 70
0
  0
VERTEX
  8
0
 10
-0.2379
 20
0.4750
 30
0.0000
 42
1.0000
  0
VERTEX
  8
0
 10
-0.2379
 20
0.4250
 30
0.0000
  0
SEQEND
  8
0
  0
POLYLINE
  8
0
 66
1
 10
0.0000
 20
0.0000
 30
0.0000
 40
0.1000
 41
0.1000
 70
0
  0
VERTEX
  8
0
 10
0.4500
 20
0.2379
 30
0.0000
  0
VERTEX
  8
0
 10
0.4500
 20
-0.2379
 30
0.0000
  0
SEQEND
  8
0
  0
POLYLINE
  8
0
 66
1
 10
0.0000
 20
0.0000
 30
0.0000
 40
0.0500
 41
0.0500
 70
0
  0
VERTEX
  8
0
 10
0.4250
 20
-0.2379
 30
0.0000
 42
1.0000
  0
VERTEX
  8
0
 10
0.4750
 20
-0.2379
 30
0.0000
  0
SEQEND
  8
0
  0
POLYLINE
  8
0
 66
1
 10
0.0000
 20
0.0000
 30
0.0000
 40
0.0500
 41
0.0500
 70
0
  0
VERTEX
  8
0
 10
0.4750
 20
0.2379
 30
0.0000
 42
1.0000
  0
VERTEX
  8
0
 10
0.4250
 20
0.2379
 30
0.0000
  0
SEQEND
  8
0
  0
POLYLINE
  8
0
 66
1
 10
0.0000
 20
0.0000
 30
0.0000
 40
0.1000
 41
0.1000
 70
0
  0
VERTEX
  8
0
 10
0.2379
 20
-0.4500
 30
0.0000
  0
VERTEX
  8
0
 10
-0.2379
 20
-0.4500
 30
0.0000
  0
SEQEND
  8
0
  0
POLYLINE
  8
0
 66
1
 10
0.0000
 20
0.0000
 30
0.0000
 40
0.0500
 41
0.0500
 70
0
  0
VERTEX
  8
0
 10
-0.2379
 20
-0.4250
 30
0.0000
 42
1.0000
  0
VERTEX
  8
0
 10
-0.2379
 20
-0.4750
 30
0.0000
  0
SEQEND
  8
0
  0
POLYLINE
  8
0
 66
1
 10
0.0000
 20
0.0000
 30
0.0000
 40
0.0500
 41
0.0500
 70
0
  0
VERTEX
  8
0
 10
0.2379
 20
-0.4750
 30
0.0000
 42
1.0000
  0
VERTEX
  8
0
 10
0.2379
 20
-0.4250
 30
0.0000
  0
SEQEND
  8
0
  0
POLYLINE
  8
0
 66
1
 10
0.0000
 20
0.0000
 30
0.0000
 40
0.1000
 41
0.1000
 70
0
  0
VERTEX
  8
0
 10
-0.4500
 20
-0.2379
 30
0.0000
  0
VERTEX
  8
0
 10
-0.4500
 20
0.2379
 30
0.0000
  0
SEQEND
  8
0
  0
POLYLINE
  8
0
 66
1
 10
0.0000
 20
0.0000
 30
0.0000
 40
0.0500
 41
0.0500
 70
0
  0
VERTEX
  8
0
 10
-0.4250
 20
0.2379
 30
0.0000
 42
1.0000
  0
VERTEX
  8
0
 10
-0.4750
 20
0.2379
 30
0.0000
  0
SEQEND
  8
0
  0
POLYLINE
  8
0
 66
1
 10
0.0000
 20
0.0000
 30
0.0000
 40
0.0500
 41
0.0500
 70
0
  0
VERTEX
  8
0
 10
-0.4750
 20
-0.2379
 30
0.0000
 42
1.0000
  0
VERTEX
  8
0
 10
-0.4250
 20
-0.2379
 30
0.0000
  0
SEQEND
  8
0
  0
ENDBLK
  8
0
  0
BLOCK
  8
0
  2
LONGP40
 70
64
 10
0.0000
 20
0.0000
 30
0.0000
  3
LONGP40
  0
POLYLINE
  8
0
 66
1
 10
0.0000
 20
0.0000
 30
0.0000
 40
0.5000
 41
0.5000
 70
0
  0
VERTEX
  8
0
 10
-0.4500
 20
-0.1036
 30
0.0000
  0
VERTEX
  8
0
 10
-0.4500
 20
0.1036
 30
0.0000
  0
VERTEX
  8
0
 10
-0.3036
 20
0.2500
 30
0.0000
  0
VERTEX
  8
0
 10
0.3036
 20
0.2500
 30
0.0000
  0
VERTEX
  8
0
 10
0.4500
 20
0.1036
 30
0.0000
  0
VERTEX
  8
0
 10
0.4500
 20
-0.1036
 30
0.0000
  0
VERTEX
  8
0
 10
0.3036
 20
-0.2500
 30
0.0000
  0
VERTEX
  8
0
 10
-0.3036
 20
-0.2500
 30
0.0000
  0
VERTEX
  8
0
 10
-0.4500
 20
-0.1036
 30
0.0000
  0
VERTEX
  8
0
 10
-0.4500
 20
0.1036
 30
0.0000
  0
SEQEND
  8
0
  0
ENDBLK
  8
0
  0
ENDSEC
  0
SECTION
  2
ENTITIES
  0
POLYLINE
  8
20
 66
1
 10
0.0000
 20
0.0000
 30
0.0000
 40
0.2000
 41
0.2000
 70
0
  0
VERTEX
  8
20
 10
0.0000
 20
-0.0001
 30
0.0000
  0
VERTEX
  8
20
 10
65.0000
 20
0.0000
 30
0.0000
  0
SEQEND
  8
0
  0
POLYLINE
  8
20
 66
1
 10
0.0000
 20
0.0000
 30
0.0000
 40
0.1000
 41
0.1000
 70
0
  0
VERTEX
  8
20
 10
65.0000
 20
-0.0500
 30
0.0000
 42
1.0000
  0
VERTEX
  8
20
 10
65.0000
 20
0.0500
 30
0.0000
  0
SEQEND
  8
0
  0
POLYLINE
  8
20
 66
1
 10
0.0000
 20
0.0000
 30
0.0000
 40
0.1000
 41
0.1000
 70
0
  0
VERTEX
  8
20
 10
-0.0000
 20
0.0499
 30
0.0000
 42
1.0000
  0
VERTEX
  8
20
 10
0.0000
 20
-0.0501
 30
0.0000
  0
SEQEND
  8
0
  0
POLYLINE
  8
20
 66
1
 10
0.0000
 20
0.0000
 30
0.0000
 40
0.2000
 41
0.2000
 70
0
  0
VERTEX
  8
20
 10
65.0000
 20
42.0000
 30
0.0000
  0
VERTEX
  8
20
 10
0.0000
 20
42.0000
 30
0.0000
  0
SEQEND
  8
0
  0
POLYLINE
  8
20
 66
1
 10
0.0000
 20
0.0000
 30
0.0000
 40
0.1000
 41
0.1000
 70
0
  0
VERTEX
  8
20
 10
0.0000
 20
42.0500
 30
0.0000
 42
1.0000
  0
VERTEX
  8
20
 10
0.0000
 20
41.9500
 30
0.0000
  0
SEQEND
  8
0
  0
POLYLINE
  8
20
 66
1
 10
0.0000
 20
0.0000
 30
0.0000
 40
0.1000
 41
0.1000
 70
0
  0
VERTEX
  8
20
 10
65.0000
 20
41.9500
 30
0.0000
 42
1.0000
  0
VERTEX
  8
20
 10
65.0000
 20
42.0500
 30
0.0000
  0
SEQEND
  8
0
  0
POLYLINE
  8
20
 66
1
 10
0.0000
 20
0.0000
 30
0.0000
 40
0.2000
 41
0.2000
 70
0
  0
VERTEX
  8
20
 10
0.0000
 20
42.0000
 30
0.0000
  0
VERTEX
  8
20
 10
0.0000
 20
-0.0001
 30
0.0000
  0
SEQEND
  8
0
  0
POLYLINE
  8
20
 66
1
 10
0.0000
 20
0.0000
 30
0.0000
 40
0.1000
 41
0.1000
 70
0
  0
VERTEX
  8
20
 10
-0.0500
 20
-0.0001
 30
0.0000
 42
1.0000
  0
VERTEX
  8
20
 10
0.0500
 20
-0.0001
 30
0.0000
  0
SEQEND
  8
0
  0
POLYLINE
  8
20
 66
1
 10
0.0000
 20
0.0000
 30
0.0000
 40
0.1000
 41
0.1000
 70
0
  0
VERTEX
  8
20
 10
0.0500
 20
42.0000
 30
0.0000
 42
1.0000
  0
VERTEX
  8
20
 10
-0.0500
 20
42.0000
 30
0.0000
  0
SEQEND
  8
0
  0
POLYLINE
  8
20
 66
1
 10
0.0000
 20
0.0000
 30
0.0000
 40
0.2000
 41
0.2000
 70
0
  0
VERTEX
  8
20
 10
65.0000
 20
0.0000
 30
0.0000
  0
VERTEX
  8
20
 10
65.0000
 20
42.0000
 30
0.0000
  0
SEQEND
  8
0
  0
POLYLINE
  8
20
 66
1
 10
0.0000
 20
0.0000
 30
0.0000
 40
0.1000
 41
0.1000
 70
0
  0
VERTEX
  8
20
 10
65.0500
 20
42.0000
 30
0.0000
 42
1.0000
  0
VERTEX
  8
20
 10
64.9500
 20
42.0000
 30
0.0000
  0
SEQEND
  8
0
  0
POLYLINE
  8
20
 66
1
 10
0.0000
 20
0.0000
 30
0.0000
 40
0.1000
 41
0.1000
 70
0
  0
VERTEX
  8
20
 10
64.9500
 20
0.0000
 30
0.0000
 42
1.0000
  0
VERTEX
  8
20
 10
65.0500
 20
0.0000
 30
0.0000
  0
SEQEND
  8
0
  0
POLYLINE
  8
21
 66
1
 10
0.0000
 20
0.0000
 30
0.0000
 40
0.2540
 41
0.2540
 70
0
  0
VERTEX
  8
21
 10
1.1430
 20
9.1440
 30
0.0000
  0
VERTEX
  8
21
 10
1.6510
 20
9.1440
 30
0.0000
  0
SEQEND
  8
0
  0
POLYLINE
  8
21
 66
1
 10
0.0000
 20
0.0000
 30
0.0000
 40
0.1270
 41
0.1270
 70
0
  0
VERTEX
  8
21
 10
1.6510
 20
9.0805
 30
0.0000
 42
1.0000
  0
VERTEX
  8
21
 10
1.6510
 20
9.2075
 30
0.0000
  0
SEQEND
  8
0
  0
POLYLINE
  8
21
 66
1
 10
0.0000
 20
0.0000
 30
0.0000
 40
0.1270
 41
0.1270
 70
0
  0
VERTEX
  8
21
 10
1.1430
 20
9.2075
 30
0.0000
 42
1.0000
  0
VERTEX
  8
21
 10
1.1430
 20
9.0805
 30
0.0000
  0
SEQEND
  8
0
  0
POLYLINE
  8
21
 66
1
 10
0.0000
 20
0.0000
 30
0.0000
 40
0.2540
 41
0.2540
 70
0
  0
VERTEX
  8
21
 10
1.1430
 20
9.1440
 30
0.0000
  0
VERTEX
  8
21
 10
1.1430
 20
8.6360
 30
0.0000
  0
SEQEND
  8
0
  0
POLYLINE
  8
21
 66
1
 10
0.0000
 20
0.0000
 30
0.0000
 40
0.1270
 41
0.1270
 70
0
  0
VERTEX
  8
21
 10
1.0795
 20
8.6360
 30
0.0000
 42
1.0000
  0
VERTEX
  8
21
 10
1.2065
 20
8.6360
 30
0.0000
  0
SEQEND
  8
0
  0
POLYLINE
  8
21
 66
1
 10
0.0000
 20
0.0000
 30
0.0000
 40
0.1270
 41
0.1270
 70
0
  0
VERTEX
  8
21
 10
1.2065
 20
9.1440
 30
0.0000
 42
1.0000
  0
VERTEX
  8
21
 10
1.0795
 20
9.1440
 30
0.0000
  0
SEQEND
  8
0
  0
POLYLINE
  8
21
 66
1
 10
0.0000
 20
0.0000
 30
0.0000
 40
0.2540
 41
0.2540
 70
0
  0
VERTEX
  8
21
 10
3.6830
 20
9.1440
 30
0.0000
  0
VERTEX
  8
21
 10
3.6830
 20
8.6360
 30
0.0000
  0
SEQEND
  8
0
  0
POLYLINE
  8
21
 66
1
 10
0.0000
 20
0.0000
 30
0.0000
 40
0.1270
 41
0.1270
 70
0
  0
VERTEX
  8
21
 10
3.6195
 20
8.6360
 30
0.0000
 42
1.0000
  0
VERTEX
  8
21
 10
3.7465
 20
8.6360
 30
0.0000
  0
SEQEND
  8
0
  0
POLYLINE
  8
21
 66
1
 10
0.0000
 20
0.0000
 30
0.0000
 40
0.1270
 41
0.1270
 70
0
  0
VERTEX
  8
21
 10
3.7465
 20
9.1440
 30
0.0000
 42
1.0000
  0
VERTEX
  8
21
 10
3.6195
 20
9.1440
 30
0.0000
  0
SEQEND
  8
0
  0
POLYLINE
  8
21
 66
1
 10
0.0000
 20
0.0000
 30
0.0000
 40
0.2540
 41
0.2540
 70
0
  0
VERTEX
  8
21
 10
3.6830
 20
9.1440
 30
0.0000
  0
VERTEX
  8
21
 10
3.1750
 20
9.1440
 30
0.0000
  0
SEQEND
  8
0
  0
POLYLINE
  8
21
 66
1
 10
0.0000
 20
0.0000
 30
0.0000
 40
0.1270
 41
0.1270
 70
0
  0
VERTEX
  8
21
 10
3.1750
 20
9.2075
 30
0.0000
 42
1.0000
  0
VERTEX
  8
21
 10
3.1750
 20
9.0805
 30
0.0000
  0
SEQEND
  8
0
  0
POLYLINE
  8
21
 66
1
 10
0.0000
 20
0.0000
 30
0.0000
 40
0.1270
 41
0.1270
 70
0
  0
VERTEX
  8
21
 10
3.6830
 20
9.0805
 30
0.0000
 42
1.0000
  0
VERTEX
  8
21
 10
3.6830
 20
9.2075
 30
0.0000
  0
SEQEND
  8
0
  0
POLYLINE
  8
21
 66
1
 10
0.0000
 20
0.0000
 30
0.0000
 40
0.2540
 41
0.2540
 70
0
  0
VERTEX
  8
21
 10
3.6830
 20
7.1120
 30
0.0000
  0
VERTEX
  8
21
 10
3.6830
 20
6.6040
 30
0.0000
  0
SEQEND
  8
0
  0
POLYLINE
  8
21
 66
1
 10
0.0000
 20
0.0000
 30
0.0000
 40
0.1270
 41
0.1270
 70
0
  0
VERTEX
  8
21
 10
3.6195
 20
6.6040
 30
0.0000
 42
1.0000
  0
VERTEX
  8
21
 10
3.7465
 20
6.6040
 30
0.0000
  0
SEQEND
  8
0
  0
POLYLINE
  8
21
 66
1
 10
0.0000
 20
0.0000
 30
0.0000
 40
0.1270
 41
0.1270
 70
0
  0
VERTEX
  8
21
 10
3.7465
 20
7.1120
 30
0.0000
 42
1.0000
  0
VERTEX
  8
21
 10
3.6195
 20
7.1120
 30
0.0000
  0
SEQEND
  8
0
  0
POLYLINE
  8
21
 66
1
 10
0.0000
 20
0.0000
 30
0.0000
 40
0.2540
 41
0.2540
 70
0
  0
VERTEX
  8
21
 10
3.6830
 20
6.6040
 30
0.0000
  0
VERTEX
  8
21
 10
3.1750
 20
6.6040
 30
0.0000
  0
SEQEND
  8
0
  0
POLYLINE
  8
21
 66
1
 10
0.0000
 20
0.0000
 30
0.0000
 40
0.1270
 41
0.1270
 70
0
  0
VERTEX
  8
21
 10
3.1750
 20
6.6675
 30
0.0000
 42
1.0000
  0
VERTEX
  8
21
 10
3.1750
 20
6.5405
 30
0.0000
  0
SEQEND
  8
0
  0
POLYLINE
  8
21
 66
1
 10
0.0000
 20
0.0000
 30
0.0000
 40
0.1270
 41
0.1270
 70
0
  0
VERTEX
  8
21
 10
3.6830
 20
6.5405
 30
0.0000
 42
1.0000
  0
VERTEX
  8
21
 10
3.6830
 20
6.6675
 30
0.0000
  0
SEQEND
  8
0
  0
POLYLINE
  8
21
 66
1
 10
0.0000
 20
0.0000
 30
0.0000
 40
0.2540
 41
0.2540
 70
0
  0
VERTEX
  8
21
 10
1.6510
 20
6.6040
 30
0.0000
  0
VERTEX
  8
21
 10
1.1430
 20
6.6040
 30
0.0000
  0
SEQEND
  8
0
  0
POLYLINE
  8
21
 66
1
 10
0.0000
 20
0.0000
 30
0.0000
 40
0.1270
 41
0.1270
 70
0
  0
VERTEX
  8
21
 10
1.1430
 20
6.6675
 30
0.0000
 42
1.0000
  0
VERTEX
  8
21
 10
1.1430
 20
6.5405
 30
0.0000
  0
SEQEND
  8
0
  0
POLYLINE
  8
21
 66
1
 10
0.0000
 20
0.0000
 30
0.0000
 40
0.1270
 41
0.1270
 70
0
  0
VERTEX
  8
21
 10
1.6510
 20
6.5405
 30
0.0000
 42
1.0000
  0
VERTEX
  8
21
 10
1.6510
 20
6.6675
 30
0.0000
  0
SEQEND
  8
0
  0
POLYLINE
  8
21
 66
1
 10
0.0000
 20
0.0000
 30
0.0000
 40
0.2540
 41
0.2540
 70
0
  0
VERTEX
  8
21
 10
1.1430
 20
6.6040
 30
0.0000
  0
VERTEX
  8
21
 10
1.1430
 20
7.1120
 30
0.0000
  0
SEQEND
  8
0
  0
POLYLINE
  8
21
 66
1
 10
0.0000
 20
0.0000
 30
0.0000
 40
0.1270
 41
0.1270
 70
0
  0
VERTEX
  8
21
 10
1.2065
 20
7.1120
 30
0.0000
 42
1.0000
  0
VERTEX
  8
21
 10
1.0795
 20
7.1120
 30
0.0000
  0
SEQEND
  8
0
  0
POLYLINE
  8
21
 66
1
 10
0.0000
 20
0.0000
 30
0.0000
 40
0.1270
 41
0.1270
 70
0
  0
VERTEX
  8
21
 10
1.0795
 20
6.6040
 30
0.0000
 42
1.0000
  0
VERTEX
  8
21
 10
1.2065
 20
6.6040
 30
0.0000
  0
SEQEND
  8
0
  0
POLYLINE
  8
51
 66
1
 10
0.0000
 20
0.0000
 30
0.0000
 40
0.2540
 41
0.2540
 70
0
  0
VERTEX
  8
51
 10
2.4130
 20
7.2390
 30
0.0000
 42
1.0000
  0
VERTEX
  8
51
 10
2.4130
 20
8.5090
 30
0.0000
 42
1.0000
  0
VERTEX
  8
51
 10
2.4130
 20
7.2390
 30
0.0000
  0
SEQEND
  8
0
  0
INSERT
  8
17
  2
ROUNDP
 10
2.4130
 20
7.8740
 30
0.0000
 41
2.5400
 42
2.5400
 43
1.0000
 50
0.0000
  0
INSERT
  8
17
  2
ROUNDP
 10
2.4130
 20
7.8740
 30
0.0000
 41
2.5400
 42
2.5400
 43
1.0000
 50
0.0000
  0
POLYLINE
  8
21
 66
1
 10
0.0000
 20
0.0000
 30
0.0000
 40
0.2540
 41
0.2540
 70
0
  0
VERTEX
  8
21
 10
14.0750
 20
10.3310
 30
0.0000
  0
VERTEX
  8
21
 10
14.0750
 20
6.0130
 30
0.0000
  0
SEQEND
  8
0
  0
POLYLINE
  8
21
 66
1
 10
0.0000
 20
0.0000
 30
0.0000
 40
0.1270
 41
0.1270
 70
0
  0
VERTEX
  8
21
 10
14.0115
 20
6.0130
 30
0.0000
 42
1.0000
  0
VERTEX
  8
21
 10
14.1385
 20
6.0130
 30
0.0000
  0
SEQEND
  8
0
  0
POLYLINE
  8
21
 66
1
 10
0.0000
 20
0.0000
 30
0.0000
 40
0.1270
 41
0.1270
 70
0
  0
VERTEX
  8
21
 10
14.1385
 20
10.3310
 30
0.0000
 42
1.0000
  0
VERTEX
  8
21
 10
14.0115
 20
10.3310
 30
0.0000
  0
SEQEND
  8
0
  0
POLYLINE
  8
21
 66
1
 10
0.0000
 20
0.0000
 30
0.0000
 40
0.2540
 41
0.2540
 70
0
  0
VERTEX
  8
21
 10
11.5350
 20
6.0130
 30
0.0000
  0
VERTEX
  8
21
 10
11.5350
 20
10.3310
 30
0.0000
  0
SEQEND
  8
0
  0
POLYLINE
  8
21
 66
1
 10
0.0000
 20
0.0000
 30
0.0000
 40
0.1270
 41
0.1270
 70
0
  0
VERTEX
  8
21
 10
11.5985
 20
10.3310
 30
0.0000
 42
1.0000
  0
VERTEX
  8
21
 10
11.4715
 20
10.3310
 30
0.0000
  0
SEQEND
  8
0
  0
POLYLINE
  8
21
 66
1
 10
0.0000
 20
0.0000
 30
0.0000
 40
0.1270
 41
0.1270
 70
0
  0
VERTEX
  8
21
 10
11.4715
 20
6.0130
 30
0.0000
 42
1.0000
  0
VERTEX
  8
21
 10
11.5985
 20
6.0130
 30
0.0000
  0
SEQEND
  8
0
  0
POLYLINE
  8
21
 66
1
 10
0.0000
 20
0.0000
 30
0.0000
 40
0.2540
 41
0.2540
 70
0
  0
VERTEX
  8
21
 10
13.8210
 20
5.7590
 30
0.0000
  0
VERTEX
  8
21
 10
11.7890
 20
5.7590
 30
0.0000
  0
SEQEND
  8
0
  0
POLYLINE
  8
21
 66
1
 10
0.0000
 20
0.0000
 30
0.0000
 40
0.1270
 41
0.1270
 70
0
  0
VERTEX
  8
21
 10
11.7890
 20
5.8225
 30
0.0000
 42
1.0000
  0
VERTEX
  8
21
 10
11.7890
 20
5.6955
 30
0.0000
  0
SEQEND
  8
0
  0
POLYLINE
  8
21
 66
1
 10
0.0000
 20
0.0000
 30
0.0000
 40
0.1270
 41
0.1270
 70
0
  0
VERTEX
  8
21
 10
13.8210
 20
5.6955
 30
0.0000
 42
1.0000
  0
VERTEX
  8
21
 10
13.8210
 20
5.8225
 30
0.0000
  0
SEQEND
  8
0
  0
POLYLINE
  8
21
 66
1
 10
0.0000
 20
0.0000
 30
0.0000
 40
0.2540
 41
0.2540
 70
0
  0
VERTEX
  8
21
 10
13.8210
 20
10.5850
 30
0.0000
  0
VERTEX
  8
21
 10
11.7890
 20
10.5850
 30
0.0000
  0
SEQEND
  8
0
  0
POLYLINE
  8
21
 66
1
 10
0.0000
 20
0.0000
 30
0.0000
 40
0.1270
 41
0.1270
 70
0
  0
VERTEX
  8
21
 10
11.7890
 20
10.6485
 30
0.0000
 42
1.0000
  0
VERTEX
  8
21
 10
11.7890
 20
10.5215
 30
0.0000
  0
SEQEND
  8
0
  0
POLYLINE
  8
21
 66
1
 10
0.0000
 20
0.0000
 30
0.0000
 40
0.1270
 41
0.1270
 70
0
  0
VERTEX
  8
21
 10
13.8210
 20
10.5215
 30
0.0000
 42
1.0000
  0
VERTEX
  8
21
 10
13.8210
 20
10.6485
 30
0.0000
  0
SEQEND
  8
0
  0
POLYLINE
  8
21
 66
1
 10
0.0000
 20
0.0000
 30
0.0000
 40
0.2540
 41
0.2540
 70
0
  0
VERTEX
  8
21
 10
13.8210
 20
5.7590
 30
0.0000
 42
0.4142
  0
VERTEX
  8
21
 10
14.0750
 20
6.0130
 30
0.0000
  0
SEQEND
  8
0
  0
POLYLINE
  8
21
 66
1
 10
0.0000
 20
0.0000
 30
0.0000
 40
0.1270
 41
0.1270
 70
0
  0
VERTEX
  8
21
 10
13.8210
 20
5.8225
 30
0.0000
 42
1.0000
  0
VERTEX
  8
21
 10
13.8210
 20
5.6955
 30
0.0000
  0
SEQEND
  8
0
  0
POLYLINE
  8
21
 66
1
 10
0.0000
 20
0.0000
 30
0.0000
 40
0.1270
 41
0.1270
 70
0
  0
VERTEX
  8
21
 10
14.1385
 20
6.0130
 30
0.0000
 42
1.0000
  0
VERTEX
  8
21
 10
14.0115
 20
6.0130
 30
0.0000
  0
SEQEND
  8
0
  0
POLYLINE
  8
21
 66
1
 10
0.0000
 20
0.0000
 30
0.0000
 40
0.2540
 41
0.2540
 70
0
  0
VERTEX
  8
21
 10
14.0750
 20
10.3310
 30
0.0000
 42
0.4142
  0
VERTEX
  8
21
 10
13.8210
 20
10.5850
 30
0.0000
  0
SEQEND
  8
0
  0
POLYLINE
  8
21
 66
1
 10
0.0000
 20
0.0000
 30
0.0000
 40
0.1270
 41
0.1270
 70
0
  0
VERTEX
  8
21
 10
14.0115
 20
10.3310
 30
0.0000
 42
1.0000
  0
VERTEX
  8
21
 10
14.1385
 20
10.3310
 30
0.0000
  0
SEQEND
  8
0
  0
POLYLINE
  8
21
 66
1
 10
0.0000
 20
0.0000
 30
0.0000
 40
0.1270
 41
0.1270
 70
0
  0
VERTEX
  8
21
 10
13.8210
 20
10.6485
 30
0.0000
 42
1.0000
  0
VERTEX
  8
21
 10
13.8210
 20
10.5215
 30
0.0000
  0
SEQEND
  8
0
  0
POLYLINE
  8
21
 66
1
 10
0.0000
 20
0.0000
 30
0.0000
 40
0.2540
 41
0.2540
 70
0
  0
VERTEX
  8
21
 10
11.5350
 20
6.0130
 30
0.0000
 42
0.4142
  0
VERTEX
  8
21
 10
11.7890
 20
5.7590
 30
0.0000
  0
SEQEND
  8
0
  0
POLYLINE
  8
21
 66
1
 10
0.0000
 20
0.0000
 30
0.0000
 40
0.1270
 41
0.1270
 70
0
  0
VERTEX
  8
21
 10
11.5985
 20
6.0130
 30
0.0000
 42
1.0000
  0
VERTEX
  8
21
 10
11.4715
 20
6.0130
 30
0.0000
  0
SEQEND
  8
0
  0
POLYLINE
  8
21
 66
1
 10
0.0000
 20
0.0000
 30
0.0000
 40
0.1270
 41
0.1270
 70
0
  0
VERTEX
  8
21
 10
11.7890
 20
5.6955
 30
0.0000
 42
1.0000
  0
VERTEX
  8
21
 10
11.7890
 20
5.8225
 30
0.0000
  0
SEQEND
  8
0
  0
POLYLINE
  8
21
 66
1
 10
0.0000
 20
0.0000
 30
0.0000
 40
0.2540
 41
0.2540
 70
0
  0
VERTEX
  8
21
 10
11.7890
 20
10.5850
 30
0.0000
 42
0.4142
  0
VERTEX
  8
21
 10
11.5350
 20
10.3310
 30
0.0000
  0
SEQEND
  8
0
  0
POLYLINE
  8
21
 66
1
 10
0.0000
 20
0.0000
 30
0.0000
 40
0.1270
 41
0.1270
 70
0
  0
VERTEX
  8
21
 10
11.7890
 20
10.5215
 30
0.0000
 42
1.0000
  0
VERTEX
  8
21
 10
11.7890
 20
10.6485
 30
0.0000
  0
SEQEND
  8
0
  0
POLYLINE
  8
21
 66
1
 10
0.0000
 20
0.0000
 30
0.0000
 40
0.1270
 41
0.1270
 70
0
  0
VERTEX
  8
21
 10
11.4715
 20
10.3310
 30
0.0000
 42
1.0000
  0
VERTEX
  8
21
 10
11.5985
 20
10.3310
 30
0.0000
  0
SEQEND
  8
0
  0
POLYLINE
  8
51
 66
1
 10
0.0000
 20
0.0000
 30
0.0000
 40
0.2540
 41
0.2540
 70
0
  0
VERTEX
  8
51
 10
12.8050
 20
7.4100
 30
0.0000
  0
VERTEX
  8
51
 10
12.8050
 20
7.7910
 30
0.0000
  0
SEQEND
  8
0
  0
POLYLINE
  8
51
 66
1
 10
0.0000
 20
0.0000
 30
0.0000
 40
0.1270
 41
0.1270
 70
0
  0
VERTEX
  8
51
 10
12.8685
 20
7.7910
 30
0.0000
 42
1.0000
  0
VERTEX
  8
51
 10
12.7415
 20
7.7910
 30
0.0000
  0
SEQEND
  8
0
  0
POLYLINE
  8
51
 66
1
 10
0.0000
 20
0.0000
 30
0.0000
 40
0.1270
 41
0.1270
 70
0
  0
VERTEX
  8
51
 10
12.7415
 20
7.4100
 30
0.0000
 42
1.0000
  0
VERTEX
  8
51
 10
12.8685
 20
7.4100
 30
0.0000
  0
SEQEND
  8
0
  0
POLYLINE
  8
21
 66
1
 10
0.0000
 20
0.0000
 30
0.0000
 40
0.2540
 41
0.2540
 70
0
  0
VERTEX
  8
21
 10
12.8050
 20
7.7910
 30
0.0000
  0
VERTEX
  8
21
 10
12.8050
 20
7.9180
 30
0.0000
  0
SEQEND
  8
0
  0
POLYLINE
  8
21
 66
1
 10
0.0000
 20
0.0000
 30
0.0000
 40
0.1270
 41
0.1270
 70
0
  0
VERTEX
  8
21
 10
12.8685
 20
7.9180
 30
0.0000
 42
1.0000
  0
VERTEX
  8
21
 10
12.7415
 20
7.9180
 30
0.0000
  0
SEQEND
  8
0
  0
POLYLINE
  8
21
 66
1
 10
0.0000
 20
0.0000
 30
0.0000
 40
0.1270
 41
0.1270
 70
0
  0
VERTEX
  8
21
 10
12.7415
 20
7.7910
 30
0.0000
 42
1.0000
  0
VERTEX
  8
21
 10
12.8685
 20
7.7910
 30
0.0000
  0
SEQEND
  8
0
  0
POLYLINE
  8
21
 66
1
 10
0.0000
 20
0.0000
 30
0.0000
 40
0.2540
 41
0.2540
 70
0
  0
VERTEX
  8
21
 10
12.8050
 20
7.9180
 30
0.0000
  0
VERTEX
  8
21
 10
13.5670
 20
7.9180
 30
0.0000
  0
SEQEND
  8
0
  0
POLYLINE
  8
21
 66
1
 10
0.0000
 20
0.0000
 30
0.0000
 40
0.1270
 41
0.1270
 70
0
  0
VERTEX
  8
21
 10
13.5670
 20
7.8545
 30
0.0000
 42
1.0000
  0
VERTEX
  8
21
 10
13.5670
 20
7.9815
 30
0.0000
  0
SEQEND
  8
0
  0
POLYLINE
  8
21
 66
1
 10
0.0000
 20
0.0000
 30
0.0000
 40
0.1270
 41
0.1270
 70
0
  0
VERTEX
  8
21
 10
12.8050
 20
7.9815
 30
0.0000
 42
1.0000
  0
VERTEX
  8
21
 10
12.8050
 20
7.8545
 30
0.0000
  0
SEQEND
  8
0
  0
POLYLINE
  8
21
 66
1
 10
0.0000
 20
0.0000
 30
0.0000
 40
0.2540
 41
0.2540
 70
0
  0
VERTEX
  8
21
 10
12.8050
 20
7.9180
 30
0.0000
  0
VERTEX
  8
21
 10
12.0430
 20
7.9180
 30
0.0000
  0
SEQEND
  8
0
  0
POLYLINE
  8
21
 66
1
 10
0.0000
 20
0.0000
 30
0.0000
 40
0.1270
 41
0.1270
 70
0
  0
VERTEX
  8
21
 10
12.0430
 20
7.9815
 30
0.0000
 42
1.0000
  0
VERTEX
  8
21
 10
12.0430
 20
7.8545
 30
0.0000
  0
SEQEND
  8
0
  0
POLYLINE
  8
21
 66
1
 10
0.0000
 20
0.0000
 30
0.0000
 40
0.1270
 41
0.1270
 70
0
  0
VERTEX
  8
21
 10
12.8050
 20
7.8545
 30
0.0000
 42
1.0000
  0
VERTEX
  8
21
 10
12.8050
 20
7.9815
 30
0.0000
  0
SEQEND
  8
0
  0
POLYLINE
  8
21
 66
1
 10
0.0000
 20
0.0000
 30
0.0000
 40
0.2540
 41
0.2540
 70
0
  0
VERTEX
  8
21
 10
13.5670
 20
8.4260
 30
0.0000
  0
VERTEX
  8
21
 10
12.8050
 20
8.4260
 30
0.0000
  0
SEQEND
  8
0
  0
POLYLINE
  8
21
 66
1
 10
0.0000
 20
0.0000
 30
0.0000
 40
0.1270
 41
0.1270
 70
0
  0
VERTEX
  8
21
 10
12.8050
 20
8.4895
 30
0.0000
 42
1.0000
  0
VERTEX
  8
21
 10
12.8050
 20
8.3625
 30
0.0000
  0
SEQEND
  8
0
  0
POLYLINE
  8
21
 66
1
 10
0.0000
 20
0.0000
 30
0.0000
 40
0.1270
 41
0.1270
 70
0
  0
VERTEX
  8
21
 10
13.5670
 20
8.3625
 30
0.0000
 42
1.0000
  0
VERTEX
  8
21
 10
13.5670
 20
8.4895
 30
0.0000
  0
SEQEND
  8
0
  0
POLYLINE
  8
21
 66
1
 10
0.0000
 20
0.0000
 30
0.0000
 40
0.2540
 41
0.2540
 70
0
  0
VERTEX
  8
21
 10
12.8050
 20
8.4260
 30
0.0000
  0
VERTEX
  8
21
 10
12.0430
 20
8.4260
 30
0.0000
  0
SEQEND
  8
0
  0
POLYLINE
  8
21
 66
1
 10
0.0000
 20
0.0000
 30
0.0000
 40
0.1270
 41
0.1270
 70
0
  0
VERTEX
  8
21
 10
12.0430
 20
8.4895
 30
0.0000
 42
1.0000
  0
VERTEX
  8
21
 10
12.0430
 20
8.3625
 30
0.0000
  0
SEQEND
  8
0
  0
POLYLINE
  8
21
 66
1
 10
0.0000
 20
0.0000
 30
0.0000
 40
0.1270
 41
0.1270
 70
0
  0
VERTEX
  8
21
 10
12.8050
 20
8.3625
 30
0.0000
 42
1.0000
  0
VERTEX
  8
21
 10
12.8050
 20
8.4895
 30
0.0000
  0
SEQEND
  8
0
  0
POLYLINE
  8
21
 66
1
 10
0.0000
 20
0.0000
 30
0.0000
 40
0.2540
 41
0.2540
 70
0
  0
VERTEX
  8
21
 10
12.8050
 20
8.4260
 30
0.0000
  0
VERTEX
  8
21
 10
12.8050
 20
8.5530
 30
0.0000
  0
SEQEND
  8
0
  0
POLYLINE
  8
21
 66
1
 10
0.0000
 20
0.0000
 30
0.0000
 40
0.1270
 41
0.1270
 70
0
  0
VERTEX
  8
21
 10
12.8685
 20
8.5530
 30
0.0000
 42
1.0000
  0
VERTEX
  8
21
 10
12.7415
 20
8.5530
 30
0.0000
  0
SEQEND
  8
0
  0
POLYLINE
  8
21
 66
1
 10
0.0000
 20
0.0000
 30
0.0000
 40
0.1270
 41
0.1270
 70
0
  0
VERTEX
  8
21
 10
12.7415
 20
8.4260
 30
0.0000
 42
1.0000
  0
VERTEX
  8
21
 10
12.8685
 20
8.4260
 30
0.0000
  0
SEQEND
  8
0
  0
POLYLINE
  8
51
 66
1
 10
0.0000
 20
0.0000
 30
0.0000
 40
0.2540
 41
0.2540
 70
0
  0
VERTEX
  8
51
 10
12.8050
 20
8.5530
 30
0.0000
  0
VERTEX
  8
51
 10
12.8050
 20
8.9340
 30
0.0000
  0
SEQEND
  8
0
  0
POLYLINE
  8
51
 66
1
 10
0.0000
 20
0.0000
 30
0.0000
 40
0.1270
 41
0.1270
 70
0
  0
VERTEX
  8
51
 10
12.8685
 20
8.9340
 30
0.0000
 42
1.0000
  0
VERTEX
  8
51
 10
12.7415
 20
8.9340
 30
0.0000
  0
SEQEND
  8
0
  0
POLYLINE
  8
51
 66
1
 10
0.0000
 20
0.0000
 30
0.0000
 40
0.1270
 41
0.1270
 70
0
  0
VERTEX
  8
51
 10
12.7415
 20
8.5530
 30
0.0000
 42
1.0000
  0
VERTEX
  8
51
 10
12.8685
 20
8.5530
 30
0.0000
  0
SEQEND
  8
0
  0
INSERT
  8
17
  2
ROUNDP
 10
12.8050
 20
9.4420
 30
0.0000
 41
1.4080
 42
1.4080
 43
1.0000
 50
270.0000
  0
INSERT
  8
17
  2
ROUNDP
 10
12.8050
 20
9.4420
 30
0.0000
 41
1.4080
 42
1.4080
 43
1.0000
 50
270.0000
  0
INSERT
  8
17
  2
ROUNDP
 10
12.8050
 20
6.9020
 30
0.0000
 41
1.4080
 42
1.4080
 43
1.0000
 50
270.0000
  0
INSERT
  8
17
  2
ROUNDP
 10
12.8050
 20
6.9020
 30
0.0000
 41
1.4080
 42
1.4080
 43
1.0000
 50
270.0000
  0
POLYLINE
  8
21
 66
1
 10
0.0000
 20
0.0000
 30
0.0000
 40
0.2540
 41
0.2540
 70
0
  0
VERTEX
  8
21
 10
1.1430
 20
4.1910
 30
0.0000
  0
VERTEX
  8
21
 10
1.6510
 20
4.1910
 30
0.0000
  0
SEQEND
  8
0
  0
POLYLINE
  8
21
 66
1
 10
0.0000
 20
0.0000
 30
0.0000
 40
0.1270
 41
0.1270
 70
0
  0
VERTEX
  8
21
 10
1.6510
 20
4.1275
 30
0.0000
 42
1.0000
  0
VERTEX
  8
21
 10
1.6510
 20
4.2545
 30
0.0000
  0
SEQEND
  8
0
  0
POLYLINE
  8
21
 66
1
 10
0.0000
 20
0.0000
 30
0.0000
 40
0.1270
 41
0.1270
 70
0
  0
VERTEX
  8
21
 10
1.1430
 20
4.2545
 30
0.0000
 42
1.0000
  0
VERTEX
  8
21
 10
1.1430
 20
4.1275
 30
0.0000
  0
SEQEND
  8
0
  0
POLYLINE
  8
21
 66
1
 10
0.0000
 20
0.0000
 30
0.0000
 40
0.2540
 41
0.2540
 70
0
  0
VERTEX
  8
21
 10
1.1430
 20
4.1910
 30
0.0000
  0
VERTEX
  8
21
 10
1.1430
 20
3.6830
 30
0.0000
  0
SEQEND
  8
0
  0
POLYLINE
  8
21
 66
1
 10
0.0000
 20
0.0000
 30
0.0000
 40
0.1270
 41
0.1270
 70
0
  0
VERTEX
  8
21
 10
1.0795
 20
3.6830
 30
0.0000
 42
1.0000
  0
VERTEX
  8
21
 10
1.2065
 20
3.6830
 30
0.0000
  0
SEQEND
  8
0
  0
POLYLINE
  8
21
 66
1
 10
0.0000
 20
0.0000
 30
0.0000
 40
0.1270
 41
0.1270
 70
0
  0
VERTEX
  8
21
 10
1.2065
 20
4.1910
 30
0.0000
 42
1.0000
  0
VERTEX
  8
21
 10
1.0795
 20
4.1910
 30
0.0000
  0
SEQEND
  8
0
  0
POLYLINE
  8
21
 66
1
 10
0.0000
 20
0.0000
 30
0.0000
 40
0.2540
 41
0.2540
 70
0
  0
VERTEX
  8
21
 10
3.6830
 20
4.1910
 30
0.0000
  0
VERTEX
  8
21
 10
3.6830
 20
3.6830
 30
0.0000
  0
SEQEND
  8
0
  0
POLYLINE
  8
21
 66
1
 10
0.0000
 20
0.0000
 30
0.0000
 40
0.1270
 41
0.1270
 70
0
  0
VERTEX
  8
21
 10
3.6195
 20
3.6830
 30
0.0000
 42
1.0000
  0
VERTEX
  8
21
 10
3.7465
 20
3.6830
 30
0.0000
  0
SEQEND
  8
0
  0
POLYLINE
  8
21
 66
1
 10
0.0000
 20
0.0000
 30
0.0000
 40
0.1270
 41
0.1270
 70
0
  0
VERTEX
  8
21
 10
3.7465
 20
4.1910
 30
0.0000
 42
1.0000
  0
VERTEX
  8
21
 10
3.6195
 20
4.1910
 30
0.0000
  0
SEQEND
  8
0
  0
POLYLINE
  8
21
 66
1
 10
0.0000
 20
0.0000
 30
0.0000
 40
0.2540
 41
0.2540
 70
0
  0
VERTEX
  8
21
 10
3.6830
 20
4.1910
 30
0.0000
  0
VERTEX
  8
21
 10
3.1750
 20
4.1910
 30
0.0000
  0
SEQEND
  8
0
  0
POLYLINE
  8
21
 66
1
 10
0.0000
 20
0.0000
 30
0.0000
 40
0.1270
 41
0.1270
 70
0
  0
VERTEX
  8
21
 10
3.1750
 20
4.2545
 30
0.0000
 42
1.0000
  0
VERTEX
  8
21
 10
3.1750
 20
4.1275
 30
0.0000
  0
SEQEND
  8
0
  0
POLYLINE
  8
21
 66
1
 10
0.0000
 20
0.0000
 30
0.0000
 40
0.1270
 41
0.1270
 70
0
  0
VERTEX
  8
21
 10
3.6830
 20
4.1275
 30
0.0000
 42
1.0000
  0
VERTEX
  8
21
 10
3.6830
 20
4.2545
 30
0.0000
  0
SEQEND
  8
0
  0
POLYLINE
  8
21
 66
1
 10
0.0000
 20
0.0000
 30
0.0000
 40
0.2540
 41
0.2540
 70
0
  0
VERTEX
  8
21
 10
3.6830
 20
2.1590
 30
0.0000
  0
VERTEX
  8
21
 10
3.6830
 20
1.6510
 30
0.0000
  0
SEQEND
  8
0
  0
POLYLINE
  8
21
 66
1
 10
0.0000
 20
0.0000
 30
0.0000
 40
0.1270
 41
0.1270
 70
0
  0
VERTEX
  8
21
 10
3.6195
 20
1.6510
 30
0.0000
 42
1.0000
  0
VERTEX
  8
21
 10
3.7465
 20
1.6510
 30
0.0000
  0
SEQEND
  8
0
  0
POLYLINE
  8
21
 66
1
 10
0.0000
 20
0.0000
 30
0.0000
 40
0.1270
 41
0.1270
 70
0
  0
VERTEX
  8
21
 10
3.7465
 20
2.1590
 30
0.0000
 42
1.0000
  0
VERTEX
  8
21
 10
3.6195
 20
2.1590
 30
0.0000
  0
SEQEND
  8
0
  0
POLYLINE
  8
21
 66
1
 10
0.0000
 20
0.0000
 30
0.0000
 40
0.2540
 41
0.2540
 70
0
  0
VERTEX
  8
21
 10
3.6830
 20
1.6510
 30
0.0000
  0
VERTEX
  8
21
 10
3.1750
 20
1.6510
 30
0.0000
  0
SEQEND
  8
0
  0
POLYLINE
  8
21
 66
1
 10
0.0000
 20
0.0000
 30
0.0000
 40
0.1270
 41
0.1270
 70
0
  0
VERTEX
  8
21
 10
3.1750
 20
1.7145
 30
0.0000
 42
1.0000
  0
VERTEX
  8
21
 10
3.1750
 20
1.5875
 30
0.0000
  0
SEQEND
  8
0
  0
POLYLINE
  8
21
 66
1
 10
0.0000
 20
0.0000
 30
0.0000
 40
0.1270
 41
0.1270
 70
0
  0
VERTEX
  8
21
 10
3.6830
 20
1.5875
 30
0.0000
 42
1.0000
  0
VERTEX
  8
21
 10
3.6830
 20
1.7145
 30
0.0000
  0
SEQEND
  8
0
  0
POLYLINE
  8
21
 66
1
 10
0.0000
 20
0.0000
 30
0.0000
 40
0.2540
 41
0.2540
 70
0
  0
VERTEX
  8
21
 10
1.6510
 20
1.6510
 30
0.0000
  0
VERTEX
  8
21
 10
1.1430
 20
1.6510
 30
0.0000
  0
SEQEND
  8
0
  0
POLYLINE
  8
21
 66
1
 10
0.0000
 20
0.0000
 30
0.0000
 40
0.1270
 41
0.1270
 70
0
  0
VERTEX
  8
21
 10
1.1430
 20
1.7145
 30
0.0000
 42
1.0000
  0
VERTEX
  8
21
 10
1.1430
 20
1.5875
 30
0.0000
  0
SEQEND
  8
0
  0
POLYLINE
  8
21
 66
1
 10
0.0000
 20
0.0000
 30
0.0000
 40
0.1270
 41
0.1270
 70
0
  0
VERTEX
  8
21
 10
1.6510
 20
1.5875
 30
0.0000
 42
1.0000
  0
VERTEX
  8
21
 10
1.6510
 20
1.7145
 30
0.0000
  0
SEQEND
  8
0
  0
POLYLINE
  8
21
 66
1
 10
0.0000
 20
0.0000
 30
0.0000
 40
0.2540
 41
0.2540
 70
0
  0
VERTEX
  8
21
 10
1.1430
 20
1.6510
 30
0.0000
  0
VERTEX
  8
21
 10
1.1430
 20
2.1590
 30
0.0000
  0
SEQEND
  8
0
  0
POLYLINE
  8
21
 66
1
 10
0.0000
 20
0.0000
 30
0.0000
 40
0.1270
 41
0.1270
 70
0
  0
VERTEX
  8
21
 10
1.2065
 20
2.1590
 30
0.0000
 42
1.0000
  0
VERTEX
  8
21
 10
1.0795
 20
2.1590
 30
0.0000
  0
SEQEND
  8
0
  0
POLYLINE
  8
21
 66
1
 10
0.0000
 20
0.0000
 30
0.0000
 40
0.1270
 41
0.1270
 70
0
  0
VERTEX
  8
21
 10
1.0795
 20
1.6510
 30
0.0000
 42
1.0000
  0
VERTEX
  8
21
 10
1.2065
 20
1.6510
 30
0.0000
  0
SEQEND
  8
0
  0
POLYLINE
  8
51
 66
1
 10
0.0000
 20
0.0000
 30
0.0000
 40
0.2540
 41
0.2540
 70
0
  0
VERTEX
  8
51
 10
2.4130
 20
2.2860
 30
0.0000
 42
1.0000
  0
VERTEX
  8
51
 10
2.4130
 20
3.5560
 30
0.0000
 42
1.0000
  0
VERTEX
  8
51
 10
2.4130
 20
2.2860
 30
0.0000
  0
SEQEND
  8
0
  0
INSERT
  8
17
  2
ROUNDP
 10
2.4130
 20
2.9210
 30
0.0000
 41
2.5400
 42
2.5400
 43
1.0000
 50
0.0000
  0
INSERT
  8
17
  2
ROUNDP
 10
2.4130
 20
2.9210
 30
0.0000
 41
2.5400
 42
2.5400
 43
1.0000
 50
0.0000
  0
POLYLINE
  8
51
 66
1
 10
0.0000
 20
0.0000
 30
0.0000
 40
2.4892
 41
2.4892
 70
0
  0
VERTEX
  8
51
 10
5.3410
 20
6.0000
 30
0.0000
 42
0.4142
  0
VERTEX
  8
51
 10
7.5000
 20
3.8410
 30
0.0000
  0
SEQEND
  8
0
  0
POLYLINE
  8
51
 66
1
 10
0.0000
 20
0.0000
 30
0.0000
 40
2.4892
 41
2.4892
 70
0
  0
VERTEX
  8
51
 10
9.6590
 20
6.0000
 30
0.0000
 42
0.4142
  0
VERTEX
  8
51
 10
7.5000
 20
8.1590
 30
0.0000
  0
SEQEND
  8
0
  0
POLYLINE
  8
51
 66
1
 10
0.0000
 20
0.0000
 30
0.0000
 40
0.1524
 41
0.1524
 70
0
  0
VERTEX
  8
51
 10
7.5000
 20
2.5710
 30
0.0000
 42
1.0000
  0
VERTEX
  8
51
 10
7.5000
 20
9.4290
 30
0.0000
 42
1.0000
  0
VERTEX
  8
51
 10
7.5000
 20
2.5710
 30
0.0000
  0
SEQEND
  8
0
  0
POLYLINE
  8
51
 66
1
 10
0.0000
 20
0.0000
 30
0.0000
 40
0.4572
 41
0.4572
 70
0
  0
VERTEX
  8
51
 10
7.5000
 20
5.2380
 30
0.0000
 42
1.0000
  0
VERTEX
  8
51
 10
7.5000
 20
6.7620
 30
0.0000
 42
1.0000
  0
VERTEX
  8
51
 10
7.5000
 20
5.2380
 30
0.0000
  0
SEQEND
  8
0
  0
POLYLINE
  8
51
 66
1
 10
0.0000
 20
0.0000
 30
0.0000
 40
0.2032
 41
0.2032
 70
0
  0
VERTEX
  8
51
 10
7.5000
 20
4.3000
 30
0.0000
 42
1.0000
  0
VERTEX
  8
51
 10
7.5000
 20
7.7000
 30
0.0000
 42
1.0000
  0
VERTEX
  8
51
 10
7.5000
 20
4.3000
 30
0.0000
  0
SEQEND
  8
0
  0
INSERT
  8
17
  2
ROUNDP
 10
7.5000
 20
6.0000
 30
0.0000
 41
5.8420
 42
5.8420
 43
1.0000
 50
0.0000
  0
INSERT
  8
17
  2
ROUNDP
 10
7.5000
 20
6.0000
 30
0.0000
 41
5.8420
 42
5.8420
 43
1.0000
 50
0.0000
  0
POLYLINE
  8
51
 66
1
 10
0.0000
 20
0.0000
 30
0.0000
 40
2.4892
 41
2.4892
 70
0
  0
VERTEX
  8
51
 10
55.3410
 20
6.0000
 30
0.0000
 42
0.4142
  0
VERTEX
  8
51
 10
57.5000
 20
3.8410
 30
0.0000
  0
SEQEND
  8
0
  0
POLYLINE
  8
51
 66
1
 10
0.0000
 20
0.0000
 30
0.0000
 40
2.4892
 41
2.4892
 70
0
  0
VERTEX
  8
51
 10
59.6590
 20
6.0000
 30
0.0000
 42
0.4142
  0
VERTEX
  8
51
 10
57.5000
 20
8.1590
 30
0.0000
  0
SEQEND
  8
0
  0
POLYLINE
  8
51
 66
1
 10
0.0000
 20
0.0000
 30
0.0000
 40
0.1524
 41
0.1524
 70
0
  0
VERTEX
  8
51
 10
57.5000
 20
2.5710
 30
0.0000
 42
1.0000
  0
VERTEX
  8
51
 10
57.5000
 20
9.4290
 30
0.0000
 42
1.0000
  0
VERTEX
  8
51
 10
57.5000
 20
2.5710
 30
0.0000
  0
SEQEND
  8
0
  0
POLYLINE
  8
51
 66
1
 10
0.0000
 20
0.0000
 30
0.0000
 40
0.4572
 41
0.4572
 70
0
  0
VERTEX
  8
51
 10
57.5000
 20
5.2380
 30
0.0000
 42
1.0000
  0
VERTEX
  8
51
 10
57.5000
 20
6.7620
 30
0.0000
 42
1.0000
  0
VERTEX
  8
51
 10
57.5000
 20
5.2380
 30
0.0000
  0
SEQEND
  8
0
  0
POLYLINE
  8
51
 66
1
 10
0.0000
 20
0.0000
 30
0.0000
 40
0.2032
 41
0.2032
 70
0
  0
VERTEX
  8
51
 10
57.5000
 20
4.3000
 30
0.0000
 42
1.0000
  0
VERTEX
  8
51
 10
57.5000
 20
7.7000
 30
0.0000
 42
1.0000
  0
VERTEX
  8
51
 10
57.5000
 20
4.3000
 30
0.0000
  0
SEQEND
  8
0
  0
INSERT
  8
17
  2
ROUNDP
 10
57.5000
 20
6.0000
 30
0.0000
 41
5.8420
 42
5.8420
 43
1.0000
 50
0.0000
  0
INSERT
  8
17
  2
ROUNDP
 10
57.5000
 20
6.0000
 30
0.0000
 41
5.8420
 42
5.8420
 43
1.0000
 50
0.0000
  0
POLYLINE
  8
51
 66
1
 10
0.0000
 20
0.0000
 30
0.0000
 40
2.4892
 41
2.4892
 70
0
  0
VERTEX
  8
51
 10
5.3410
 20
36.0000
 30
0.0000
 42
0.4142
  0
VERTEX
  8
51
 10
7.5000
 20
33.8410
 30
0.0000
  0
SEQEND
  8
0
  0
POLYLINE
  8
51
 66
1
 10
0.0000
 20
0.0000
 30
0.0000
 40
2.4892
 41
2.4892
 70
0
  0
VERTEX
  8
51
 10
9.6590
 20
36.0000
 30
0.0000
 42
0.4142
  0
VERTEX
  8
51
 10
7.5000
 20
38.1590
 30
0.0000
  0
SEQEND
  8
0
  0
POLYLINE
  8
51
 66
1
 10
0.0000
 20
0.0000
 30
0.0000
 40
0.1524
 41
0.1524
 70
0
  0
VERTEX
  8
51
 10
7.5000
 20
32.5710
 30
0.0000
 42
1.0000
  0
VERTEX
  8
51
 10
7.5000
 20
39.4290
 30
0.0000
 42
1.0000
  0
VERTEX
  8
51
 10
7.5000
 20
32.5710
 30
0.0000
  0
SEQEND
  8
0
  0
POLYLINE
  8
51
 66
1
 10
0.0000
 20
0.0000
 30
0.0000
 40
0.4572
 41
0.4572
 70
0
  0
VERTEX
  8
51
 10
7.5000
 20
35.2380
 30
0.0000
 42
1.0000
  0
VERTEX
  8
51
 10
7.5000
 20
36.7620
 30
0.0000
 42
1.0000
  0
VERTEX
  8
51
 10
7.5000
 20
35.2380
 30
0.0000
  0
SEQEND
  8
0
  0
POLYLINE
  8
51
 66
1
 10
0.0000
 20
0.0000
 30
0.0000
 40
0.2032
 41
0.2032
 70
0
  0
VERTEX
  8
51
 10
7.5000
 20
34.3000
 30
0.0000
 42
1.0000
  0
VERTEX
  8
51
 10
7.5000
 20
37.7000
 30
0.0000
 42
1.0000
  0
VERTEX
  8
51
 10
7.5000
 20
34.3000
 30
0.0000
  0
SEQEND
  8
0
  0
INSERT
  8
17
  2
ROUNDP
 10
7.5000
 20
36.0000
 30
0.0000
 41
5.8420
 42
5.8420
 43
1.0000
 50
0.0000
  0
INSERT
  8
17
  2
ROUNDP
 10
7.5000
 20
36.0000
 30
0.0000
 41
5.8420
 42
5.8420
 43
1.0000
 50
0.0000
  0
POLYLINE
  8
51
 66
1
 10
0.0000
 20
0.0000
 30
0.0000
 40
2.4892
 41
2.4892
 70
0
  0
VERTEX
  8
51
 10
55.3410
 20
36.0000
 30
0.0000
 42
0.4142
  0
VERTEX
  8
51
 10
57.5000
 20
33.8410
 30
0.0000
  0
SEQEND
  8
0
  0
POLYLINE
  8
51
 66
1
 10
0.0000
 20
0.0000
 30
0.0000
 40
2.4892
 41
2.4892
 70
0
  0
VERTEX
  8
51
 10
59.6590
 20
36.0000
 30
0.0000
 42
0.4142
  0
VERTEX
  8
51
 10
57.5000
 20
38.1590
 30
0.0000
  0
SEQEND
  8
0
  0
POLYLINE
  8
51
 66
1
 10
0.0000
 20
0.0000
 30
0.0000
 40
0.1524
 41
0.1524
 70
0
  0
VERTEX
  8
51
 10
57.5000
 20
32.5710
 30
0.0000
 42
1.0000
  0
VERTEX
  8
51
 10
57.5000
 20
39.4290
 30
0.0000
 42
1.0000
  0
VERTEX
  8
51
 10
57.5000
 20
32.5710
 30
0.0000
  0
SEQEND
  8
0
  0
POLYLINE
  8
51
 66
1
 10
0.0000
 20
0.0000
 30
0.0000
 40
0.4572
 41
0.4572
 70
0
  0
VERTEX
  8
51
 10
57.5000
 20
35.2380
 30
0.0000
 42
1.0000
  0
VERTEX
  8
51
 10
57.5000
 20
36.7620
 30
0.0000
 42
1.0000
  0
VERTEX
  8
51
 10
57.5000
 20
35.2380
 30
0.0000
  0
SEQEND
  8
0
  0
POLYLINE
  8
51
 66
1
 10
0.0000
 20
0.0000
 30
0.0000
 40
0.2032
 41
0.2032
 70
0
  0
VERTEX
  8
51
 10
57.5000
 20
34.3000
 30
0.0000
 42
1.0000
  0
VERTEX
  8
51
 10
57.5000
 20
37.7000
 30
0.0000
 42
1.0000
  0
VERTEX
  8
51
 10
57.5000
 20
34.3000
 30
0.0000
  0
SEQEND
  8
0
  0
INSERT
  8
17
  2
ROUNDP
 10
57.5000
 20
36.0000
 30
0.0000
 41
5.8420
 42
5.8420
 43
1.0000
 50
0.0000
  0
INSERT
  8
17
  2
ROUNDP
 10
57.5000
 20
36.0000
 30
0.0000
 41
5.8420
 42
5.8420
 43
1.0000
 50
0.0000
  0
POLYLINE
  8
21
 66
1
 10
0.0000
 20
0.0000
 30
0.0000
 40
0.2540
 41
0.2540
 70
0
  0
VERTEX
  8
21
 10
61.5460
 20
2.2550
 30
0.0000
  0
VERTEX
  8
21
 10
64.0860
 20
2.2550
 30
0.0000
  0
SEQEND
  8
0
  0
POLYLINE
  8
21
 66
1
 10
0.0000
 20
0.0000
 30
0.0000
 40
0.1270
 41
0.1270
 70
0
  0
VERTEX
  8
21
 10
64.0860
 20
2.1915
 30
0.0000
 42
1.0000
  0
VERTEX
  8
21
 10
64.0860
 20
2.3185
 30
0.0000
  0
SEQEND
  8
0
  0
POLYLINE
  8
21
 66
1
 10
0.0000
 20
0.0000
 30
0.0000
 40
0.1270
 41
0.1270
 70
0
  0
VERTEX
  8
21
 10
61.5460
 20
2.3185
 30
0.0000
 42
1.0000
  0
VERTEX
  8
21
 10
61.5460
 20
2.1915
 30
0.0000
  0
SEQEND
  8
0
  0
POLYLINE
  8
21
 66
1
 10
0.0000
 20
0.0000
 30
0.0000
 40
0.2540
 41
0.2540
 70
0
  0
VERTEX
  8
21
 10
61.5460
 20
2.2550
 30
0.0000
  0
VERTEX
  8
21
 10
61.5460
 20
4.7950
 30
0.0000
  0
SEQEND
  8
0
  0
POLYLINE
  8
21
 66
1
 10
0.0000
 20
0.0000
 30
0.0000
 40
0.1270
 41
0.1270
 70
0
  0
VERTEX
  8
21
 10
61.6095
 20
4.7950
 30
0.0000
 42
1.0000
  0
VERTEX
  8
21
 10
61.4825
 20
4.7950
 30
0.0000
  0
SEQEND
  8
0
  0
POLYLINE
  8
21
 66
1
 10
0.0000
 20
0.0000
 30
0.0000
 40
0.1270
 41
0.1270
 70
0
  0
VERTEX
  8
21
 10
61.4825
 20
2.2550
 30
0.0000
 42
1.0000
  0
VERTEX
  8
21
 10
61.6095
 20
2.2550
 30
0.0000
  0
SEQEND
  8
0
  0
POLYLINE
  8
21
 66
1
 10
0.0000
 20
0.0000
 30
0.0000
 40
0.2540
 41
0.2540
 70
0
  0
VERTEX
  8
21
 10
61.5460
 20
4.7950
 30
0.0000
  0
VERTEX
  8
21
 10
61.5460
 20
9.8750
 30
0.0000
  0
SEQEND
  8
0
  0
POLYLINE
  8
21
 66
1
 10
0.0000
 20
0.0000
 30
0.0000
 40
0.1270
 41
0.1270
 70
0
  0
VERTEX
  8
21
 10
61.6095
 20
9.8750
 30
0.0000
 42
1.0000
  0
VERTEX
  8
21
 10
61.4825
 20
9.8750
 30
0.0000
  0
SEQEND
  8
0
  0
POLYLINE
  8
21
 66
1
 10
0.0000
 20
0.0000
 30
0.0000
 40
0.1270
 41
0.1270
 70
0
  0
VERTEX
  8
21
 10
61.4825
 20
4.7950
 30
0.0000
 42
1.0000
  0
VERTEX
  8
21
 10
61.6095
 20
4.7950
 30
0.0000
  0
SEQEND
  8
0
  0
POLYLINE
  8
21
 66
1
 10
0.0000
 20
0.0000
 30
0.0000
 40
0.2540
 41
0.2540
 70
0
  0
VERTEX
  8
21
 10
61.5460
 20
9.8750
 30
0.0000
  0
VERTEX
  8
21
 10
64.0860
 20
9.8750
 30
0.0000
  0
SEQEND
  8
0
  0
POLYLINE
  8
21
 66
1
 10
0.0000
 20
0.0000
 30
0.0000
 40
0.1270
 41
0.1270
 70
0
  0
VERTEX
  8
21
 10
64.0860
 20
9.8115
 30
0.0000
 42
1.0000
  0
VERTEX
  8
21
 10
64.0860
 20
9.9385
 30
0.0000
  0
SEQEND
  8
0
  0
POLYLINE
  8
21
 66
1
 10
0.0000
 20
0.0000
 30
0.0000
 40
0.1270
 41
0.1270
 70
0
  0
VERTEX
  8
21
 10
61.5460
 20
9.9385
 30
0.0000
 42
1.0000
  0
VERTEX
  8
21
 10
61.5460
 20
9.8115
 30
0.0000
  0
SEQEND
  8
0
  0
POLYLINE
  8
21
 66
1
 10
0.0000
 20
0.0000
 30
0.0000
 40
0.2540
 41
0.2540
 70
0
  0
VERTEX
  8
21
 10
64.0860
 20
9.8750
 30
0.0000
  0
VERTEX
  8
21
 10
64.0860
 20
2.2550
 30
0.0000
  0
SEQEND
  8
0
  0
POLYLINE
  8
21
 66
1
 10
0.0000
 20
0.0000
 30
0.0000
 40
0.1270
 41
0.1270
 70
0
  0
VERTEX
  8
21
 10
64.0225
 20
2.2550
 30
0.0000
 42
1.0000
  0
VERTEX
  8
21
 10
64.1495
 20
2.2550
 30
0.0000
  0
SEQEND
  8
0
  0
POLYLINE
  8
21
 66
1
 10
0.0000
 20
0.0000
 30
0.0000
 40
0.1270
 41
0.1270
 70
0
  0
VERTEX
  8
21
 10
64.1495
 20
9.8750
 30
0.0000
 42
1.0000
  0
VERTEX
  8
21
 10
64.0225
 20
9.8750
 30
0.0000
  0
SEQEND
  8
0
  0
POLYLINE
  8
21
 66
1
 10
0.0000
 20
0.0000
 30
0.0000
 40
0.2540
 41
0.2540
 70
0
  0
VERTEX
  8
21
 10
61.5460
 20
4.7950
 30
0.0000
  0
VERTEX
  8
21
 10
64.0860
 20
4.7950
 30
0.0000
  0
SEQEND
  8
0
  0
POLYLINE
  8
21
 66
1
 10
0.0000
 20
0.0000
 30
0.0000
 40
0.1270
 41
0.1270
 70
0
  0
VERTEX
  8
21
 10
64.0860
 20
4.7315
 30
0.0000
 42
1.0000
  0
VERTEX
  8
21
 10
64.0860
 20
4.8585
 30
0.0000
  0
SEQEND
  8
0
  0
POLYLINE
  8
21
 66
1
 10
0.0000
 20
0.0000
 30
0.0000
 40
0.1270
 41
0.1270
 70
0
  0
VERTEX
  8
21
 10
61.5460
 20
4.8585
 30
0.0000
 42
1.0000
  0
VERTEX
  8
21
 10
61.5460
 20
4.7315
 30
0.0000
  0
SEQEND
  8
0
  0
INSERT
  8
51
  2
RECT
 10
62.8160
 20
6.0650
 30
0.0000
 41
0.5080
 42
0.5080
 43
1.0000
 50
90.0000
  0
INSERT
  8
51
  2
RECT
 10
62.8160
 20
3.5250
 30
0.0000
 41
0.5080
 42
0.5080
 43
1.0000
 50
90.0000
  0
INSERT
  8
51
  2
RECT
 10
62.8160
 20
8.6050
 30
0.0000
 41
0.5080
 42
0.5080
 43
1.0000
 50
90.0000
  0
INSERT
  8
17
  2
ROUNDP
 10
62.8160
 20
3.5250
 30
0.0000
 41
1.5646
 42
1.5646
 43
1.0000
 50
180.0000
  0
INSERT
  8
17
  2
ROUNDP
 10
62.8160
 20
3.5250
 30
0.0000
 41
1.5646
 42
1.5646
 43
1.0000
 50
180.0000
  0
INSERT
  8
17
  2
ROUNDP
 10
62.8160
 20
6.0650
 30
0.0000
 41
1.5646
 42
1.5646
 43
1.0000
 50
180.0000
  0
INSERT
  8
17
  2
ROUNDP
 10
62.8160
 20
6.0650
 30
0.0000
 41
1.5646
 42
1.5646
 43
1.0000
 50
180.0000
  0
INSERT
  8
17
  2
ROUNDP
 10
62.8160
 20
8.6050
 30
0.0000
 41
1.5646
 42
1.5646
 43
1.0000
 50
180.0000
  0
INSERT
  8
17
  2
ROUNDP
 10
62.8160
 20
8.6050
 30
0.0000
 41
1.5646
 42
1.5646
 43
1.0000
 50
180.0000
  0
POLYLINE
  8
21
 66
1
 10
0.0000
 20
0.0000
 30
0.0000
 40
0.2540
 41
0.2540
 70
0
  0
VERTEX
  8
21
 10
13.4700
 20
31.2500
 30
0.0000
  0
VERTEX
  8
21
 10
13.4700
 20
11.9300
 30
0.0000
  0
SEQEND
  8
0
  0
POLYLINE
  8
21
 66
1
 10
0.0000
 20
0.0000
 30
0.0000
 40
0.1270
 41
0.1270
 70
0
  0
VERTEX
  8
21
 10
13.4065
 20
11.9300
 30
0.0000
 42
1.0000
  0
VERTEX
  8
21
 10
13.5335
 20
11.9300
 30
0.0000
  0
SEQEND
  8
0
  0
POLYLINE
  8
21
 66
1
 10
0.0000
 20
0.0000
 30
0.0000
 40
0.1270
 41
0.1270
 70
0
  0
VERTEX
  8
21
 10
13.5335
 20
31.2500
 30
0.0000
 42
1.0000
  0
VERTEX
  8
21
 10
13.4065
 20
31.2500
 30
0.0000
  0
SEQEND
  8
0
  0
POLYLINE
  8
21
 66
1
 10
0.0000
 20
0.0000
 30
0.0000
 40
0.2540
 41
0.2540
 70
0
  0
VERTEX
  8
21
 10
13.4700
 20
11.9300
 30
0.0000
  0
VERTEX
  8
21
 10
0.7700
 20
11.9300
 30
0.0000
  0
SEQEND
  8
0
  0
POLYLINE
  8
21
 66
1
 10
0.0000
 20
0.0000
 30
0.0000
 40
0.1270
 41
0.1270
 70
0
  0
VERTEX
  8
21
 10
0.7700
 20
11.9935
 30
0.0000
 42
1.0000
  0
VERTEX
  8
21
 10
0.7700
 20
11.8665
 30
0.0000
  0
SEQEND
  8
0
  0
POLYLINE
  8
21
 66
1
 10
0.0000
 20
0.0000
 30
0.0000
 40
0.1270
 41
0.1270
 70
0
  0
VERTEX
  8
21
 10
13.4700
 20
11.8665
 30
0.0000
 42
1.0000
  0
VERTEX
  8
21
 10
13.4700
 20
11.9935
 30
0.0000
  0
SEQEND
  8
0
  0
POLYLINE
  8
21
 66
1
 10
0.0000
 20
0.0000
 30
0.0000
 40
0.2540
 41
0.2540
 70
0
  0
VERTEX
  8
21
 10
0.7700
 20
11.9300
 30
0.0000
  0
VERTEX
  8
21
 10
0.7700
 20
31.2500
 30
0.0000
  0
SEQEND
  8
0
  0
POLYLINE
  8
21
 66
1
 10
0.0000
 20
0.0000
 30
0.0000
 40
0.1270
 41
0.1270
 70
0
  0
VERTEX
  8
21
 10
0.8335
 20
31.2500
 30
0.0000
 42
1.0000
  0
VERTEX
  8
21
 10
0.7065
 20
31.2500
 30
0.0000
  0
SEQEND
  8
0
  0
POLYLINE
  8
21
 66
1
 10
0.0000
 20
0.0000
 30
0.0000
 40
0.1270
 41
0.1270
 70
0
  0
VERTEX
  8
21
 10
0.7065
 20
11.9300
 30
0.0000
 42
1.0000
  0
VERTEX
  8
21
 10
0.8335
 20
11.9300
 30
0.0000
  0
SEQEND
  8
0
  0
POLYLINE
  8
21
 66
1
 10
0.0000
 20
0.0000
 30
0.0000
 40
0.2540
 41
0.2540
 70
0
  0
VERTEX
  8
21
 10
0.7700
 20
31.2500
 30
0.0000
  0
VERTEX
  8
21
 10
13.4700
 20
31.2500
 30
0.0000
  0
SEQEND
  8
0
  0
POLYLINE
  8
21
 66
1
 10
0.0000
 20
0.0000
 30
0.0000
 40
0.1270
 41
0.1270
 70
0
  0
VERTEX
  8
21
 10
13.4700
 20
31.1865
 30
0.0000
 42
1.0000
  0
VERTEX
  8
21
 10
13.4700
 20
31.3135
 30
0.0000
  0
SEQEND
  8
0
  0
POLYLINE
  8
21
 66
1
 10
0.0000
 20
0.0000
 30
0.0000
 40
0.1270
 41
0.1270
 70
0
  0
VERTEX
  8
21
 10
0.7700
 20
31.3135
 30
0.0000
 42
1.0000
  0
VERTEX
  8
21
 10
0.7700
 20
31.1865
 30
0.0000
  0
SEQEND
  8
0
  0
LINE
  8
51
 10
11.8698
 20
27.8638
 30
0.0000
 11
11.1840
 21
27.1780
 31
0.0000
  0
LINE
  8
51
 10
11.1840
 20
27.1780
 30
0.0000
 11
10.3458
 21
22.3774
 31
0.0000
  0
LINE
  8
51
 10
10.3458
 20
22.3774
 30
0.0000
 11
10.8284
 21
21.8948
 31
0.0000
  0
LINE
  8
51
 10
10.8284
 20
21.8948
 30
0.0000
 11
11.4380
 21
22.5044
 31
0.0000
  0
LINE
  8
51
 10
11.4380
 20
22.5044
 30
0.0000
 11
12.2762
 21
27.4574
 31
0.0000
  0
LINE
  8
51
 10
12.2762
 20
27.4574
 30
0.0000
 11
11.8698
 21
27.8638
 31
0.0000
  0
LINE
  8
51
 10
11.4126
 20
28.3210
 30
0.0000
 11
10.7776
 21
27.6860
 31
0.0000
  0
LINE
  8
51
 10
10.7776
 20
27.6860
 30
0.0000
 11
5.4944
 21
27.6860
 31
0.0000
  0
LINE
  8
51
 10
5.4944
 20
27.6860
 30
0.0000
 11
4.8086
 21
28.3718
 31
0.0000
  0
LINE
  8
51
 10
4.8086
 20
28.3718
 30
0.0000
 11
5.1388
 21
28.7020
 31
0.0000
  0
LINE
  8
51
 10
5.1388
 20
28.7020
 30
0.0000
 11
11.0316
 21
28.7020
 31
0.0000
  0
LINE
  8
51
 10
11.0316
 20
28.7020
 30
0.0000
 11
11.4126
 21
28.3210
 31
0.0000
  0
LINE
  8
51
 10
4.3514
 20
27.9146
 30
0.0000
 11
4.9864
 21
27.2796
 31
0.0000
  0
LINE
  8
51
 10
4.9864
 20
27.2796
 30
0.0000
 11
4.1482
 21
22.4028
 31
0.0000
  0
LINE
  8
51
 10
4.1482
 20
22.4028
 30
0.0000
 11
3.5640
 21
21.8186
 31
0.0000
  0
LINE
  8
51
 10
3.5640
 20
21.8186
 30
0.0000
 11
3.0814
 21
22.3012
 31
0.0000
  0
LINE
  8
51
 10
3.0814
 20
22.3012
 30
0.0000
 11
3.9958
 21
27.5590
 31
0.0000
  0
LINE
  8
51
 10
3.9958
 20
27.5590
 30
0.0000
 11
4.3514
 21
27.9146
 31
0.0000
  0
LINE
  8
51
 10
4.0466
 20
21.3360
 30
0.0000
 11
4.6816
 21
21.9710
 31
0.0000
  0
LINE
  8
51
 10
4.6816
 20
21.9710
 30
0.0000
 11
9.8124
 21
21.9710
 31
0.0000
  0
LINE
  8
51
 10
9.8124
 20
21.9710
 30
0.0000
 11
10.3204
 21
21.4630
 31
0.0000
  0
LINE
  8
51
 10
10.3204
 20
21.4630
 30
0.0000
 11
9.8124
 21
20.9550
 31
0.0000
  0
LINE
  8
51
 10
9.8124
 20
20.9550
 30
0.0000
 11
4.4276
 21
20.9550
 31
0.0000
  0
LINE
  8
51
 10
4.4276
 20
20.9550
 30
0.0000
 11
4.0466
 21
21.3360
 31
0.0000
  0
LINE
  8
51
 10
3.5640
 20
20.8534
 30
0.0000
 11
3.8180
 21
20.5994
 31
0.0000
  0
LINE
  8
51
 10
2.3702
 20
15.0368
 30
0.0000
 11
2.9544
 21
15.6210
 31
0.0000
  0
LINE
  8
51
 10
2.9544
 20
15.6210
 30
0.0000
 11
3.8180
 21
20.5994
 31
0.0000
  0
LINE
  8
51
 10
3.5640
 20
20.8534
 30
0.0000
 11
2.6750
 21
19.9644
 31
0.0000
  0
LINE
  8
51
 10
2.6750
 20
19.9644
 30
0.0000
 11
1.8876
 21
15.5194
 31
0.0000
  0
LINE
  8
51
 10
1.8876
 20
15.5194
 30
0.0000
 11
2.3702
 21
15.0368
 31
0.0000
  0
LINE
  8
51
 10
2.8528
 20
14.5542
 30
0.0000
 11
3.5386
 21
15.2400
 31
0.0000
  0
LINE
  8
51
 10
3.5386
 20
15.2400
 30
0.0000
 11
8.7964
 21
15.2400
 31
0.0000
  0
LINE
  8
51
 10
8.7964
 20
15.2400
 30
0.0000
 11
9.4822
 21
14.5542
 31
0.0000
  0
LINE
  8
51
 10
9.4822
 20
14.5542
 30
0.0000
 11
9.1520
 21
14.2240
 31
0.0000
  0
LINE
  8
51
 10
9.1520
 20
14.2240
 30
0.0000
 11
3.1830
 21
14.2240
 31
0.0000
  0
LINE
  8
51
 10
3.1830
 20
14.2240
 30
0.0000
 11
2.8528
 21
14.5542
 31
0.0000
  0
LINE
  8
51
 10
10.8030
 20
21.0058
 30
0.0000
 11
9.9648
 21
20.1676
 31
0.0000
  0
LINE
  8
51
 10
9.9648
 20
20.1676
 30
0.0000
 11
9.2028
 21
15.7734
 31
0.0000
  0
LINE
  8
51
 10
9.2028
 20
15.7734
 30
0.0000
 11
9.9648
 21
15.0114
 31
0.0000
  0
LINE
  8
51
 10
9.9648
 20
15.0114
 30
0.0000
 11
10.1680
 21
15.2146
 31
0.0000
  0
LINE
  8
51
 10
10.1680
 20
15.2146
 30
0.0000
 11
11.0824
 21
20.7264
 31
0.0000
  0
LINE
  8
51
 10
11.0824
 20
20.7264
 30
0.0000
 11
10.8030
 21
21.0058
 31
0.0000
  0
POLYLINE
  8
21
 66
1
 10
0.0000
 20
0.0000
 30
0.0000
 40
0.2540
 41
0.2540
 70
0
  0
VERTEX
  8
21
 10
9.7870
 20
17.6538
 30
0.0000
  0
VERTEX
  8
21
 10
9.7870
 20
16.6370
 30
0.0000
  0
SEQEND
  8
0
  0
POLYLINE
  8
21
 66
1
 10
0.0000
 20
0.0000
 30
0.0000
 40
0.1270
 41
0.1270
 70
0
  0
VERTEX
  8
21
 10
9.7235
 20
16.6370
 30
0.0000
 42
1.0000
  0
VERTEX
  8
21
 10
9.8505
 20
16.6370
 30
0.0000
  0
SEQEND
  8
0
  0
POLYLINE
  8
21
 66
1
 10
0.0000
 20
0.0000
 30
0.0000
 40
0.1270
 41
0.1270
 70
0
  0
VERTEX
  8
21
 10
9.8505
 20
17.6538
 30
0.0000
 42
1.0000
  0
VERTEX
  8
21
 10
9.7235
 20
17.6538
 30
0.0000
  0
SEQEND
  8
0
  0
POLYLINE
  8
21
 66
1
 10
0.0000
 20
0.0000
 30
0.0000
 40
0.2540
 41
0.2540
 70
0
  0
VERTEX
  8
21
 10
9.7870
 20
16.6370
 30
0.0000
  0
VERTEX
  8
21
 10
10.2954
 20
16.6370
 30
0.0000
  0
SEQEND
  8
0
  0
POLYLINE
  8
21
 66
1
 10
0.0000
 20
0.0000
 30
0.0000
 40
0.1270
 41
0.1270
 70
0
  0
VERTEX
  8
21
 10
10.2954
 20
16.5735
 30
0.0000
 42
1.0000
  0
VERTEX
  8
21
 10
10.2954
 20
16.7005
 30
0.0000
  0
SEQEND
  8
0
  0
POLYLINE
  8
21
 66
1
 10
0.0000
 20
0.0000
 30
0.0000
 40
0.1270
 41
0.1270
 70
0
  0
VERTEX
  8
21
 10
9.7870
 20
16.7005
 30
0.0000
 42
1.0000
  0
VERTEX
  8
21
 10
9.7870
 20
16.5735
 30
0.0000
  0
SEQEND
  8
0
  0
POLYLINE
  8
21
 66
1
 10
0.0000
 20
0.0000
 30
0.0000
 40
0.2540
 41
0.2540
 70
0
  0
VERTEX
  8
21
 10
10.2954
 20
16.6370
 30
0.0000
  0
VERTEX
  8
21
 10
10.4649
 20
16.8064
 30
0.0000
  0
SEQEND
  8
0
  0
POLYLINE
  8
21
 66
1
 10
0.0000
 20
0.0000
 30
0.0000
 40
0.1270
 41
0.1270
 70
0
  0
VERTEX
  8
21
 10
10.5098
 20
16.7615
 30
0.0000
 42
1.0000
  0
VERTEX
  8
21
 10
10.4200
 20
16.8513
 30
0.0000
  0
SEQEND
  8
0
  0
POLYLINE
  8
21
 66
1
 10
0.0000
 20
0.0000
 30
0.0000
 40
0.1270
 41
0.1270
 70
0
  0
VERTEX
  8
21
 10
10.2505
 20
16.6819
 30
0.0000
 42
1.0000
  0
VERTEX
  8
21
 10
10.3403
 20
16.5921
 30
0.0000
  0
SEQEND
  8
0
  0
POLYLINE
  8
21
 66
1
 10
0.0000
 20
0.0000
 30
0.0000
 40
0.2540
 41
0.2540
 70
0
  0
VERTEX
  8
21
 10
10.4649
 20
16.8064
 30
0.0000
  0
VERTEX
  8
21
 10
10.4649
 20
17.4843
 30
0.0000
  0
SEQEND
  8
0
  0
POLYLINE
  8
21
 66
1
 10
0.0000
 20
0.0000
 30
0.0000
 40
0.1270
 41
0.1270
 70
0
  0
VERTEX
  8
21
 10
10.5284
 20
17.4843
 30
0.0000
 42
1.0000
  0
VERTEX
  8
21
 10
10.4014
 20
17.4843
 30
0.0000
  0
SEQEND
  8
0
  0
POLYLINE
  8
21
 66
1
 10
0.0000
 20
0.0000
 30
0.0000
 40
0.1270
 41
0.1270
 70
0
  0
VERTEX
  8
21
 10
10.4014
 20
16.8064
 30
0.0000
 42
1.0000
  0
VERTEX
  8
21
 10
10.5284
 20
16.8064
 30
0.0000
  0
SEQEND
  8
0
  0
POLYLINE
  8
21
 66
1
 10
0.0000
 20
0.0000
 30
0.0000
 40
0.2540
 41
0.2540
 70
0
  0
VERTEX
  8
21
 10
10.4649
 20
17.4843
 30
0.0000
  0
VERTEX
  8
21
 10
10.2954
 20
17.6538
 30
0.0000
  0
SEQEND
  8
0
  0
POLYLINE
  8
21
 66
1
 10
0.0000
 20
0.0000
 30
0.0000
 40
0.1270
 41
0.1270
 70
0
  0
VERTEX
  8
21
 10
10.3403
 20
17.6987
 30
0.0000
 42
1.0000
  0
VERTEX
  8
21
 10
10.2505
 20
17.6089
 30
0.0000
  0
SEQEND
  8
0
  0
POLYLINE
  8
21
 66
1
 10
0.0000
 20
0.0000
 30
0.0000
 40
0.1270
 41
0.1270
 70
0
  0
VERTEX
  8
21
 10
10.4200
 20
17.4394
 30
0.0000
 42
1.0000
  0
VERTEX
  8
21
 10
10.5098
 20
17.5292
 30
0.0000
  0
SEQEND
  8
0
  0
POLYLINE
  8
21
 66
1
 10
0.0000
 20
0.0000
 30
0.0000
 40
0.2540
 41
0.2540
 70
0
  0
VERTEX
  8
21
 10
10.2954
 20
17.6538
 30
0.0000
  0
VERTEX
  8
21
 10
9.7870
 20
17.6538
 30
0.0000
  0
SEQEND
  8
0
  0
POLYLINE
  8
21
 66
1
 10
0.0000
 20
0.0000
 30
0.0000
 40
0.1270
 41
0.1270
 70
0
  0
VERTEX
  8
21
 10
9.7870
 20
17.7173
 30
0.0000
 42
1.0000
  0
VERTEX
  8
21
 10
9.7870
 20
17.5903
 30
0.0000
  0
SEQEND
  8
0
  0
POLYLINE
  8
21
 66
1
 10
0.0000
 20
0.0000
 30
0.0000
 40
0.1270
 41
0.1270
 70
0
  0
VERTEX
  8
21
 10
10.2954
 20
17.5903
 30
0.0000
 42
1.0000
  0
VERTEX
  8
21
 10
10.2954
 20
17.7173
 30
0.0000
  0
SEQEND
  8
0
  0
POLYLINE
  8
21
 66
1
 10
0.0000
 20
0.0000
 30
0.0000
 40
0.2540
 41
0.2540
 70
0
  0
VERTEX
  8
21
 10
10.9563
 20
16.6370
 30
0.0000
  0
VERTEX
  8
21
 10
10.9563
 20
17.6538
 30
0.0000
  0
SEQEND
  8
0
  0
POLYLINE
  8
21
 66
1
 10
0.0000
 20
0.0000
 30
0.0000
 40
0.1270
 41
0.1270
 70
0
  0
VERTEX
  8
21
 10
11.0198
 20
17.6538
 30
0.0000
 42
1.0000
  0
VERTEX
  8
21
 10
10.8928
 20
17.6538
 30
0.0000
  0
SEQEND
  8
0
  0
POLYLINE
  8
21
 66
1
 10
0.0000
 20
0.0000
 30
0.0000
 40
0.1270
 41
0.1270
 70
0
  0
VERTEX
  8
21
 10
10.8928
 20
16.6370
 30
0.0000
 42
1.0000
  0
VERTEX
  8
21
 10
11.0198
 20
16.6370
 30
0.0000
  0
SEQEND
  8
0
  0
POLYLINE
  8
21
 66
1
 10
0.0000
 20
0.0000
 30
0.0000
 40
0.2540
 41
0.2540
 70
0
  0
VERTEX
  8
21
 10
10.9563
 20
17.6538
 30
0.0000
  0
VERTEX
  8
21
 10
11.4647
 20
17.6538
 30
0.0000
  0
SEQEND
  8
0
  0
POLYLINE
  8
21
 66
1
 10
0.0000
 20
0.0000
 30
0.0000
 40
0.1270
 41
0.1270
 70
0
  0
VERTEX
  8
21
 10
11.4647
 20
17.5903
 30
0.0000
 42
1.0000
  0
VERTEX
  8
21
 10
11.4647
 20
17.7173
 30
0.0000
  0
SEQEND
  8
0
  0
POLYLINE
  8
21
 66
1
 10
0.0000
 20
0.0000
 30
0.0000
 40
0.1270
 41
0.1270
 70
0
  0
VERTEX
  8
21
 10
10.9563
 20
17.7173
 30
0.0000
 42
1.0000
  0
VERTEX
  8
21
 10
10.9563
 20
17.5903
 30
0.0000
  0
SEQEND
  8
0
  0
POLYLINE
  8
21
 66
1
 10
0.0000
 20
0.0000
 30
0.0000
 40
0.2540
 41
0.2540
 70
0
  0
VERTEX
  8
21
 10
11.4647
 20
17.6538
 30
0.0000
  0
VERTEX
  8
21
 10
11.6342
 20
17.4843
 30
0.0000
  0
SEQEND
  8
0
  0
POLYLINE
  8
21
 66
1
 10
0.0000
 20
0.0000
 30
0.0000
 40
0.1270
 41
0.1270
 70
0
  0
VERTEX
  8
21
 10
11.5893
 20
17.4394
 30
0.0000
 42
1.0000
  0
VERTEX
  8
21
 10
11.6791
 20
17.5292
 30
0.0000
  0
SEQEND
  8
0
  0
POLYLINE
  8
21
 66
1
 10
0.0000
 20
0.0000
 30
0.0000
 40
0.1270
 41
0.1270
 70
0
  0
VERTEX
  8
21
 10
11.5096
 20
17.6987
 30
0.0000
 42
1.0000
  0
VERTEX
  8
21
 10
11.4198
 20
17.6089
 30
0.0000
  0
SEQEND
  8
0
  0
POLYLINE
  8
21
 66
1
 10
0.0000
 20
0.0000
 30
0.0000
 40
0.2540
 41
0.2540
 70
0
  0
VERTEX
  8
21
 10
11.6342
 20
17.4843
 30
0.0000
  0
VERTEX
  8
21
 10
11.6342
 20
17.1454
 30
0.0000
  0
SEQEND
  8
0
  0
POLYLINE
  8
21
 66
1
 10
0.0000
 20
0.0000
 30
0.0000
 40
0.1270
 41
0.1270
 70
0
  0
VERTEX
  8
21
 10
11.5707
 20
17.1454
 30
0.0000
 42
1.0000
  0
VERTEX
  8
21
 10
11.6977
 20
17.1454
 30
0.0000
  0
SEQEND
  8
0
  0
POLYLINE
  8
21
 66
1
 10
0.0000
 20
0.0000
 30
0.0000
 40
0.1270
 41
0.1270
 70
0
  0
VERTEX
  8
21
 10
11.6977
 20
17.4843
 30
0.0000
 42
1.0000
  0
VERTEX
  8
21
 10
11.5707
 20
17.4843
 30
0.0000
  0
SEQEND
  8
0
  0
POLYLINE
  8
21
 66
1
 10
0.0000
 20
0.0000
 30
0.0000
 40
0.2540
 41
0.2540
 70
0
  0
VERTEX
  8
21
 10
11.6342
 20
17.1454
 30
0.0000
  0
VERTEX
  8
21
 10
11.4647
 20
16.9759
 30
0.0000
  0
SEQEND
  8
0
  0
POLYLINE
  8
21
 66
1
 10
0.0000
 20
0.0000
 30
0.0000
 40
0.1270
 41
0.1270
 70
0
  0
VERTEX
  8
21
 10
11.4198
 20
17.0208
 30
0.0000
 42
1.0000
  0
VERTEX
  8
21
 10
11.5096
 20
16.9310
 30
0.0000
  0
SEQEND
  8
0
  0
POLYLINE
  8
21
 66
1
 10
0.0000
 20
0.0000
 30
0.0000
 40
0.1270
 41
0.1270
 70
0
  0
VERTEX
  8
21
 10
11.6791
 20
17.1005
 30
0.0000
 42
1.0000
  0
VERTEX
  8
21
 10
11.5893
 20
17.1903
 30
0.0000
  0
SEQEND
  8
0
  0
POLYLINE
  8
21
 66
1
 10
0.0000
 20
0.0000
 30
0.0000
 40
0.2540
 41
0.2540
 70
0
  0
VERTEX
  8
21
 10
11.4647
 20
16.9759
 30
0.0000
  0
VERTEX
  8
21
 10
10.9563
 20
16.9759
 30
0.0000
  0
SEQEND
  8
0
  0
POLYLINE
  8
21
 66
1
 10
0.0000
 20
0.0000
 30
0.0000
 40
0.1270
 41
0.1270
 70
0
  0
VERTEX
  8
21
 10
10.9563
 20
17.0394
 30
0.0000
 42
1.0000
  0
VERTEX
  8
21
 10
10.9563
 20
16.9124
 30
0.0000
  0
SEQEND
  8
0
  0
POLYLINE
  8
21
 66
1
 10
0.0000
 20
0.0000
 30
0.0000
 40
0.1270
 41
0.1270
 70
0
  0
VERTEX
  8
21
 10
11.4647
 20
16.9124
 30
0.0000
 42
1.0000
  0
VERTEX
  8
21
 10
11.4647
 20
17.0394
 30
0.0000
  0
SEQEND
  8
0
  0
POLYLINE
  8
21
 66
1
 10
0.0000
 20
0.0000
 30
0.0000
 40
0.2540
 41
0.2540
 70
0
  0
VERTEX
  8
21
 10
11.5650
 20
14.6050
 30
0.0000
 42
1.0000
  0
VERTEX
  8
21
 10
11.5650
 20
15.8750
 30
0.0000
 42
1.0000
  0
VERTEX
  8
21
 10
11.5650
 20
14.6050
 30
0.0000
  0
SEQEND
  8
0
  0
INSERT
  8
17
  2
ROUNDP
 10
2.0400
 20
13.9700
 30
0.0000
 41
1.4080
 42
1.4080
 43
1.0000
 50
90.0000
  0
INSERT
  8
17
  2
ROUNDP
 10
2.0400
 20
13.9700
 30
0.0000
 41
1.4080
 42
1.4080
 43
1.0000
 50
90.0000
  0
INSERT
  8
17
  2
ROUNDP
 10
4.5800
 20
13.9700
 30
0.0000
 41
1.4080
 42
1.4080
 43
1.0000
 50
90.0000
  0
INSERT
  8
17
  2
ROUNDP
 10
4.5800
 20
13.9700
 30
0.0000
 41
1.4080
 42
1.4080
 43
1.0000
 50
90.0000
  0
INSERT
  8
17
  2
ROUNDP
 10
7.1200
 20
13.9700
 30
0.0000
 41
1.4080
 42
1.4080
 43
1.0000
 50
90.0000
  0
INSERT
  8
17
  2
ROUNDP
 10
7.1200
 20
13.9700
 30
0.0000
 41
1.4080
 42
1.4080
 43
1.0000
 50
90.0000
  0
INSERT
  8
17
  2
ROUNDP
 10
9.6600
 20
13.9700
 30
0.0000
 41
1.4080
 42
1.4080
 43
1.0000
 50
90.0000
  0
INSERT
  8
17
  2
ROUNDP
 10
9.6600
 20
13.9700
 30
0.0000
 41
1.4080
 42
1.4080
 43
1.0000
 50
90.0000
  0
INSERT
  8
17
  2
ROUNDP
 10
12.2000
 20
13.9700
 30
0.0000
 41
1.4080
 42
1.4080
 43
1.0000
 50
90.0000
  0
INSERT
  8
17
  2
ROUNDP
 10
12.2000
 20
13.9700
 30
0.0000
 41
1.4080
 42
1.4080
 43
1.0000
 50
90.0000
  0
INSERT
  8
17
  2
ROUNDP
 10
12.2000
 20
29.2100
 30
0.0000
 41
1.4080
 42
1.4080
 43
1.0000
 50
90.0000
  0
INSERT
  8
17
  2
ROUNDP
 10
12.2000
 20
29.2100
 30
0.0000
 41
1.4080
 42
1.4080
 43
1.0000
 50
90.0000
  0
INSERT
  8
17
  2
ROUNDP
 10
9.6600
 20
29.2100
 30
0.0000
 41
1.4080
 42
1.4080
 43
1.0000
 50
90.0000
  0
INSERT
  8
17
  2
ROUNDP
 10
9.6600
 20
29.2100
 30
0.0000
 41
1.4080
 42
1.4080
 43
1.0000
 50
90.0000
  0
INSERT
  8
17
  2
ROUNDP
 10
7.1200
 20
29.2100
 30
0.0000
 41
1.4080
 42
1.4080
 43
1.0000
 50
90.0000
  0
INSERT
  8
17
  2
ROUNDP
 10
7.1200
 20
29.2100
 30
0.0000
 41
1.4080
 42
1.4080
 43
1.0000
 50
90.0000
  0
INSERT
  8
17
  2
ROUNDP
 10
4.5800
 20
29.2100
 30
0.0000
 41
1.4080
 42
1.4080
 43
1.0000
 50
90.0000
  0
INSERT
  8
17
  2
ROUNDP
 10
4.5800
 20
29.2100
 30
0.0000
 41
1.4080
 42
1.4080
 43
1.0000
 50
90.0000
  0
INSERT
  8
17
  2
ROUNDP
 10
2.0400
 20
29.2100
 30
0.0000
 41
1.4080
 42
1.4080
 43
1.0000
 50
90.0000
  0
INSERT
  8
17
  2
ROUNDP
 10
2.0400
 20
29.2100
 30
0.0000
 41
1.4080
 42
1.4080
 43
1.0000
 50
90.0000
  0
POLYLINE
  8
21
 66
1
 10
0.0000
 20
0.0000
 30
0.0000
 40
0.2540
 41
0.2540
 70
0
  0
VERTEX
  8
21
 10
26.1700
 20
11.9300
 30
0.0000
  0
VERTEX
  8
21
 10
13.4700
 20
11.9300
 30
0.0000
  0
SEQEND
  8
0
  0
POLYLINE
  8
21
 66
1
 10
0.0000
 20
0.0000
 30
0.0000
 40
0.1270
 41
0.1270
 70
0
  0
VERTEX
  8
21
 10
13.4700
 20
11.9935
 30
0.0000
 42
1.0000
  0
VERTEX
  8
21
 10
13.4700
 20
11.8665
 30
0.0000
  0
SEQEND
  8
0
  0
POLYLINE
  8
21
 66
1
 10
0.0000
 20
0.0000
 30
0.0000
 40
0.1270
 41
0.1270
 70
0
  0
VERTEX
  8
21
 10
26.1700
 20
11.8665
 30
0.0000
 42
1.0000
  0
VERTEX
  8
21
 10
26.1700
 20
11.9935
 30
0.0000
  0
SEQEND
  8
0
  0
POLYLINE
  8
21
 66
1
 10
0.0000
 20
0.0000
 30
0.0000
 40
0.2540
 41
0.2540
 70
0
  0
VERTEX
  8
21
 10
13.4700
 20
11.9300
 30
0.0000
  0
VERTEX
  8
21
 10
13.4700
 20
31.2500
 30
0.0000
  0
SEQEND
  8
0
  0
POLYLINE
  8
21
 66
1
 10
0.0000
 20
0.0000
 30
0.0000
 40
0.1270
 41
0.1270
 70
0
  0
VERTEX
  8
21
 10
13.5335
 20
31.2500
 30
0.0000
 42
1.0000
  0
VERTEX
  8
21
 10
13.4065
 20
31.2500
 30
0.0000
  0
SEQEND
  8
0
  0
POLYLINE
  8
21
 66
1
 10
0.0000
 20
0.0000
 30
0.0000
 40
0.1270
 41
0.1270
 70
0
  0
VERTEX
  8
21
 10
13.4065
 20
11.9300
 30
0.0000
 42
1.0000
  0
VERTEX
  8
21
 10
13.5335
 20
11.9300
 30
0.0000
  0
SEQEND
  8
0
  0
POLYLINE
  8
21
 66
1
 10
0.0000
 20
0.0000
 30
0.0000
 40
0.2540
 41
0.2540
 70
0
  0
VERTEX
  8
21
 10
13.4700
 20
31.2500
 30
0.0000
  0
VERTEX
  8
21
 10
26.1700
 20
31.2500
 30
0.0000
  0
SEQEND
  8
0
  0
POLYLINE
  8
21
 66
1
 10
0.0000
 20
0.0000
 30
0.0000
 40
0.1270
 41
0.1270
 70
0
  0
VERTEX
  8
21
 10
26.1700
 20
31.1865
 30
0.0000
 42
1.0000
  0
VERTEX
  8
21
 10
26.1700
 20
31.3135
 30
0.0000
  0
SEQEND
  8
0
  0
POLYLINE
  8
21
 66
1
 10
0.0000
 20
0.0000
 30
0.0000
 40
0.1270
 41
0.1270
 70
0
  0
VERTEX
  8
21
 10
13.4700
 20
31.3135
 30
0.0000
 42
1.0000
  0
VERTEX
  8
21
 10
13.4700
 20
31.1865
 30
0.0000
  0
SEQEND
  8
0
  0
LINE
  8
51
 10
24.5698
 20
27.8638
 30
0.0000
 11
23.8840
 21
27.1780
 31
0.0000
  0
LINE
  8
51
 10
23.8840
 20
27.1780
 30
0.0000
 11
23.0458
 21
22.3774
 31
0.0000
  0
LINE
  8
51
 10
23.0458
 20
22.3774
 30
0.0000
 11
23.5284
 21
21.8948
 31
0.0000
  0
LINE
  8
51
 10
23.5284
 20
21.8948
 30
0.0000
 11
24.1380
 21
22.5044
 31
0.0000
  0
LINE
  8
51
 10
24.1380
 20
22.5044
 30
0.0000
 11
24.9762
 21
27.4574
 31
0.0000
  0
LINE
  8
51
 10
24.9762
 20
27.4574
 30
0.0000
 11
24.5698
 21
27.8638
 31
0.0000
  0
LINE
  8
51
 10
24.1126
 20
28.3210
 30
0.0000
 11
23.4776
 21
27.6860
 31
0.0000
  0
LINE
  8
51
 10
23.4776
 20
27.6860
 30
0.0000
 11
18.1944
 21
27.6860
 31
0.0000
  0
LINE
  8
51
 10
18.1944
 20
27.6860
 30
0.0000
 11
17.5086
 21
28.3718
 31
0.0000
  0
LINE
  8
51
 10
17.5086
 20
28.3718
 30
0.0000
 11
17.8388
 21
28.7020
 31
0.0000
  0
LINE
  8
51
 10
17.8388
 20
28.7020
 30
0.0000
 11
23.7316
 21
28.7020
 31
0.0000
  0
LINE
  8
51
 10
23.7316
 20
28.7020
 30
0.0000
 11
24.1126
 21
28.3210
 31
0.0000
  0
LINE
  8
51
 10
17.0514
 20
27.9146
 30
0.0000
 11
17.6864
 21
27.2796
 31
0.0000
  0
LINE
  8
51
 10
17.6864
 20
27.2796
 30
0.0000
 11
16.8482
 21
22.4028
 31
0.0000
  0
LINE
  8
51
 10
16.8482
 20
22.4028
 30
0.0000
 11
16.2640
 21
21.8186
 31
0.0000
  0
LINE
  8
51
 10
16.2640
 20
21.8186
 30
0.0000
 11
15.7814
 21
22.3012
 31
0.0000
  0
LINE
  8
51
 10
15.7814
 20
22.3012
 30
0.0000
 11
16.6958
 21
27.5590
 31
0.0000
  0
LINE
  8
51
 10
16.6958
 20
27.5590
 30
0.0000
 11
17.0514
 21
27.9146
 31
0.0000
  0
LINE
  8
51
 10
16.7466
 20
21.3360
 30
0.0000
 11
17.3816
 21
21.9710
 31
0.0000
  0
LINE
  8
51
 10
17.3816
 20
21.9710
 30
0.0000
 11
22.5124
 21
21.9710
 31
0.0000
  0
LINE
  8
51
 10
22.5124
 20
21.9710
 30
0.0000
 11
23.0204
 21
21.4630
 31
0.0000
  0
LINE
  8
51
 10
23.0204
 20
21.4630
 30
0.0000
 11
22.5124
 21
20.9550
 31
0.0000
  0
LINE
  8
51
 10
22.5124
 20
20.9550
 30
0.0000
 11
17.1276
 21
20.9550
 31
0.0000
  0
LINE
  8
51
 10
17.1276
 20
20.9550
 30
0.0000
 11
16.7466
 21
21.3360
 31
0.0000
  0
LINE
  8
51
 10
16.2640
 20
20.8534
 30
0.0000
 11
16.5180
 21
20.5994
 31
0.0000
  0
LINE
  8
51
 10
15.0702
 20
15.0368
 30
0.0000
 11
15.6544
 21
15.6210
 31
0.0000
  0
LINE
  8
51
 10
15.6544
 20
15.6210
 30
0.0000
 11
16.5180
 21
20.5994
 31
0.0000
  0
LINE
  8
51
 10
16.2640
 20
20.8534
 30
0.0000
 11
15.3750
 21
19.9644
 31
0.0000
  0
LINE
  8
51
 10
15.3750
 20
19.9644
 30
0.0000
 11
14.5876
 21
15.5194
 31
0.0000
  0
LINE
  8
51
 10
14.5876
 20
15.5194
 30
0.0000
 11
15.0702
 21
15.0368
 31
0.0000
  0
LINE
  8
51
 10
15.5528
 20
14.5542
 30
0.0000
 11
16.2386
 21
15.2400
 31
0.0000
  0
LINE
  8
51
 10
16.2386
 20
15.2400
 30
0.0000
 11
21.4964
 21
15.2400
 31
0.0000
  0
LINE
  8
51
 10
21.4964
 20
15.2400
 30
0.0000
 11
22.1822
 21
14.5542
 31
0.0000
  0
LINE
  8
51
 10
22.1822
 20
14.5542
 30
0.0000
 11
21.8520
 21
14.2240
 31
0.0000
  0
LINE
  8
51
 10
21.8520
 20
14.2240
 30
0.0000
 11
15.8830
 21
14.2240
 31
0.0000
  0
LINE
  8
51
 10
15.8830
 20
14.2240
 30
0.0000
 11
15.5528
 21
14.5542
 31
0.0000
  0
LINE
  8
51
 10
23.5030
 20
21.0058
 30
0.0000
 11
22.6648
 21
20.1676
 31
0.0000
  0
LINE
  8
51
 10
22.6648
 20
20.1676
 30
0.0000
 11
21.9028
 21
15.7734
 31
0.0000
  0
LINE
  8
51
 10
21.9028
 20
15.7734
 30
0.0000
 11
22.6648
 21
15.0114
 31
0.0000
  0
LINE
  8
51
 10
22.6648
 20
15.0114
 30
0.0000
 11
22.8680
 21
15.2146
 31
0.0000
  0
LINE
  8
51
 10
22.8680
 20
15.2146
 30
0.0000
 11
23.7824
 21
20.7264
 31
0.0000
  0
LINE
  8
51
 10
23.7824
 20
20.7264
 30
0.0000
 11
23.5030
 21
21.0058
 31
0.0000
  0
POLYLINE
  8
21
 66
1
 10
0.0000
 20
0.0000
 30
0.0000
 40
0.2540
 41
0.2540
 70
0
  0
VERTEX
  8
21
 10
38.8700
 20
31.2500
 30
0.0000
  0
VERTEX
  8
21
 10
38.8700
 20
11.9300
 30
0.0000
  0
SEQEND
  8
0
  0
POLYLINE
  8
21
 66
1
 10
0.0000
 20
0.0000
 30
0.0000
 40
0.1270
 41
0.1270
 70
0
  0
VERTEX
  8
21
 10
38.8065
 20
11.9300
 30
0.0000
 42
1.0000
  0
VERTEX
  8
21
 10
38.9335
 20
11.9300
 30
0.0000
  0
SEQEND
  8
0
  0
POLYLINE
  8
21
 66
1
 10
0.0000
 20
0.0000
 30
0.0000
 40
0.1270
 41
0.1270
 70
0
  0
VERTEX
  8
21
 10
38.9335
 20
31.2500
 30
0.0000
 42
1.0000
  0
VERTEX
  8
21
 10
38.8065
 20
31.2500
 30
0.0000
  0
SEQEND
  8
0
  0
POLYLINE
  8
21
 66
1
 10
0.0000
 20
0.0000
 30
0.0000
 40
0.2540
 41
0.2540
 70
0
  0
VERTEX
  8
21
 10
38.8700
 20
11.9300
 30
0.0000
  0
VERTEX
  8
21
 10
26.1700
 20
11.9300
 30
0.0000
  0
SEQEND
  8
0
  0
POLYLINE
  8
21
 66
1
 10
0.0000
 20
0.0000
 30
0.0000
 40
0.1270
 41
0.1270
 70
0
  0
VERTEX
  8
21
 10
26.1700
 20
11.9935
 30
0.0000
 42
1.0000
  0
VERTEX
  8
21
 10
26.1700
 20
11.8665
 30
0.0000
  0
SEQEND
  8
0
  0
POLYLINE
  8
21
 66
1
 10
0.0000
 20
0.0000
 30
0.0000
 40
0.1270
 41
0.1270
 70
0
  0
VERTEX
  8
21
 10
38.8700
 20
11.8665
 30
0.0000
 42
1.0000
  0
VERTEX
  8
21
 10
38.8700
 20
11.9935
 30
0.0000
  0
SEQEND
  8
0
  0
POLYLINE
  8
21
 66
1
 10
0.0000
 20
0.0000
 30
0.0000
 40
0.2540
 41
0.2540
 70
0
  0
VERTEX
  8
21
 10
26.1700
 20
31.2500
 30
0.0000
  0
VERTEX
  8
21
 10
38.8700
 20
31.2500
 30
0.0000
  0
SEQEND
  8
0
  0
POLYLINE
  8
21
 66
1
 10
0.0000
 20
0.0000
 30
0.0000
 40
0.1270
 41
0.1270
 70
0
  0
VERTEX
  8
21
 10
38.8700
 20
31.1865
 30
0.0000
 42
1.0000
  0
VERTEX
  8
21
 10
38.8700
 20
31.3135
 30
0.0000
  0
SEQEND
  8
0
  0
POLYLINE
  8
21
 66
1
 10
0.0000
 20
0.0000
 30
0.0000
 40
0.1270
 41
0.1270
 70
0
  0
VERTEX
  8
21
 10
26.1700
 20
31.3135
 30
0.0000
 42
1.0000
  0
VERTEX
  8
21
 10
26.1700
 20
31.1865
 30
0.0000
  0
SEQEND
  8
0
  0
LINE
  8
51
 10
37.2698
 20
27.8638
 30
0.0000
 11
36.5840
 21
27.1780
 31
0.0000
  0
LINE
  8
51
 10
36.5840
 20
27.1780
 30
0.0000
 11
35.7458
 21
22.3774
 31
0.0000
  0
LINE
  8
51
 10
35.7458
 20
22.3774
 30
0.0000
 11
36.2284
 21
21.8948
 31
0.0000
  0
LINE
  8
51
 10
36.2284
 20
21.8948
 30
0.0000
 11
36.8380
 21
22.5044
 31
0.0000
  0
LINE
  8
51
 10
36.8380
 20
22.5044
 30
0.0000
 11
37.6762
 21
27.4574
 31
0.0000
  0
LINE
  8
51
 10
37.6762
 20
27.4574
 30
0.0000
 11
37.2698
 21
27.8638
 31
0.0000
  0
LINE
  8
51
 10
36.8126
 20
28.3210
 30
0.0000
 11
36.1776
 21
27.6860
 31
0.0000
  0
LINE
  8
51
 10
36.1776
 20
27.6860
 30
0.0000
 11
30.8944
 21
27.6860
 31
0.0000
  0
LINE
  8
51
 10
30.8944
 20
27.6860
 30
0.0000
 11
30.2086
 21
28.3718
 31
0.0000
  0
LINE
  8
51
 10
30.2086
 20
28.3718
 30
0.0000
 11
30.5388
 21
28.7020
 31
0.0000
  0
LINE
  8
51
 10
30.5388
 20
28.7020
 30
0.0000
 11
36.4316
 21
28.7020
 31
0.0000
  0
LINE
  8
51
 10
36.4316
 20
28.7020
 30
0.0000
 11
36.8126
 21
28.3210
 31
0.0000
  0
LINE
  8
51
 10
29.7514
 20
27.9146
 30
0.0000
 11
30.3864
 21
27.2796
 31
0.0000
  0
LINE
  8
51
 10
30.3864
 20
27.2796
 30
0.0000
 11
29.5482
 21
22.4028
 31
0.0000
  0
LINE
  8
51
 10
29.5482
 20
22.4028
 30
0.0000
 11
28.9640
 21
21.8186
 31
0.0000
  0
LINE
  8
51
 10
28.9640
 20
21.8186
 30
0.0000
 11
28.4814
 21
22.3012
 31
0.0000
  0
LINE
  8
51
 10
28.4814
 20
22.3012
 30
0.0000
 11
29.3958
 21
27.5590
 31
0.0000
  0
LINE
  8
51
 10
29.3958
 20
27.5590
 30
0.0000
 11
29.7514
 21
27.9146
 31
0.0000
  0
LINE
  8
51
 10
29.4466
 20
21.3360
 30
0.0000
 11
30.0816
 21
21.9710
 31
0.0000
  0
LINE
  8
51
 10
30.0816
 20
21.9710
 30
0.0000
 11
35.2124
 21
21.9710
 31
0.0000
  0
LINE
  8
51
 10
35.2124
 20
21.9710
 30
0.0000
 11
35.7204
 21
21.4630
 31
0.0000
  0
LINE
  8
51
 10
35.7204
 20
21.4630
 30
0.0000
 11
35.2124
 21
20.9550
 31
0.0000
  0
LINE
  8
51
 10
35.2124
 20
20.9550
 30
0.0000
 11
29.8276
 21
20.9550
 31
0.0000
  0
LINE
  8
51
 10
29.8276
 20
20.9550
 30
0.0000
 11
29.4466
 21
21.3360
 31
0.0000
  0
LINE
  8
51
 10
28.9640
 20
20.8534
 30
0.0000
 11
29.2180
 21
20.5994
 31
0.0000
  0
LINE
  8
51
 10
27.7702
 20
15.0368
 30
0.0000
 11
28.3544
 21
15.6210
 31
0.0000
  0
LINE
  8
51
 10
28.3544
 20
15.6210
 30
0.0000
 11
29.2180
 21
20.5994
 31
0.0000
  0
LINE
  8
51
 10
28.9640
 20
20.8534
 30
0.0000
 11
28.0750
 21
19.9644
 31
0.0000
  0
LINE
  8
51
 10
28.0750
 20
19.9644
 30
0.0000
 11
27.2876
 21
15.5194
 31
0.0000
  0
LINE
  8
51
 10
27.2876
 20
15.5194
 30
0.0000
 11
27.7702
 21
15.0368
 31
0.0000
  0
LINE
  8
51
 10
28.2528
 20
14.5542
 30
0.0000
 11
28.9386
 21
15.2400
 31
0.0000
  0
LINE
  8
51
 10
28.9386
 20
15.2400
 30
0.0000
 11
34.1964
 21
15.2400
 31
0.0000
  0
LINE
  8
51
 10
34.1964
 20
15.2400
 30
0.0000
 11
34.8822
 21
14.5542
 31
0.0000
  0
LINE
  8
51
 10
34.8822
 20
14.5542
 30
0.0000
 11
34.5520
 21
14.2240
 31
0.0000
  0
LINE
  8
51
 10
34.5520
 20
14.2240
 30
0.0000
 11
28.5830
 21
14.2240
 31
0.0000
  0
LINE
  8
51
 10
28.5830
 20
14.2240
 30
0.0000
 11
28.2528
 21
14.5542
 31
0.0000
  0
LINE
  8
51
 10
36.2030
 20
21.0058
 30
0.0000
 11
35.3648
 21
20.1676
 31
0.0000
  0
LINE
  8
51
 10
35.3648
 20
20.1676
 30
0.0000
 11
34.6028
 21
15.7734
 31
0.0000
  0
LINE
  8
51
 10
34.6028
 20
15.7734
 30
0.0000
 11
35.3648
 21
15.0114
 31
0.0000
  0
LINE
  8
51
 10
35.3648
 20
15.0114
 30
0.0000
 11
35.5680
 21
15.2146
 31
0.0000
  0
LINE
  8
51
 10
35.5680
 20
15.2146
 30
0.0000
 11
36.4824
 21
20.7264
 31
0.0000
  0
LINE
  8
51
 10
36.4824
 20
20.7264
 30
0.0000
 11
36.2030
 21
21.0058
 31
0.0000
  0
POLYLINE
  8
21
 66
1
 10
0.0000
 20
0.0000
 30
0.0000
 40
0.2540
 41
0.2540
 70
0
  0
VERTEX
  8
21
 10
22.4870
 20
17.6538
 30
0.0000
  0
VERTEX
  8
21
 10
22.4870
 20
16.6370
 30
0.0000
  0
SEQEND
  8
0
  0
POLYLINE
  8
21
 66
1
 10
0.0000
 20
0.0000
 30
0.0000
 40
0.1270
 41
0.1270
 70
0
  0
VERTEX
  8
21
 10
22.4235
 20
16.6370
 30
0.0000
 42
1.0000
  0
VERTEX
  8
21
 10
22.5505
 20
16.6370
 30
0.0000
  0
SEQEND
  8
0
  0
POLYLINE
  8
21
 66
1
 10
0.0000
 20
0.0000
 30
0.0000
 40
0.1270
 41
0.1270
 70
0
  0
VERTEX
  8
21
 10
22.5505
 20
17.6538
 30
0.0000
 42
1.0000
  0
VERTEX
  8
21
 10
22.4235
 20
17.6538
 30
0.0000
  0
SEQEND
  8
0
  0
POLYLINE
  8
21
 66
1
 10
0.0000
 20
0.0000
 30
0.0000
 40
0.2540
 41
0.2540
 70
0
  0
VERTEX
  8
21
 10
22.4870
 20
16.6370
 30
0.0000
  0
VERTEX
  8
21
 10
22.9954
 20
16.6370
 30
0.0000
  0
SEQEND
  8
0
  0
POLYLINE
  8
21
 66
1
 10
0.0000
 20
0.0000
 30
0.0000
 40
0.1270
 41
0.1270
 70
0
  0
VERTEX
  8
21
 10
22.9954
 20
16.5735
 30
0.0000
 42
1.0000
  0
VERTEX
  8
21
 10
22.9954
 20
16.7005
 30
0.0000
  0
SEQEND
  8
0
  0
POLYLINE
  8
21
 66
1
 10
0.0000
 20
0.0000
 30
0.0000
 40
0.1270
 41
0.1270
 70
0
  0
VERTEX
  8
21
 10
22.4870
 20
16.7005
 30
0.0000
 42
1.0000
  0
VERTEX
  8
21
 10
22.4870
 20
16.5735
 30
0.0000
  0
SEQEND
  8
0
  0
POLYLINE
  8
21
 66
1
 10
0.0000
 20
0.0000
 30
0.0000
 40
0.2540
 41
0.2540
 70
0
  0
VERTEX
  8
21
 10
22.9954
 20
16.6370
 30
0.0000
  0
VERTEX
  8
21
 10
23.1649
 20
16.8064
 30
0.0000
  0
SEQEND
  8
0
  0
POLYLINE
  8
21
 66
1
 10
0.0000
 20
0.0000
 30
0.0000
 40
0.1270
 41
0.1270
 70
0
  0
VERTEX
  8
21
 10
23.2098
 20
16.7615
 30
0.0000
 42
1.0000
  0
VERTEX
  8
21
 10
23.1200
 20
16.8513
 30
0.0000
  0
SEQEND
  8
0
  0
POLYLINE
  8
21
 66
1
 10
0.0000
 20
0.0000
 30
0.0000
 40
0.1270
 41
0.1270
 70
0
  0
VERTEX
  8
21
 10
22.9505
 20
16.6819
 30
0.0000
 42
1.0000
  0
VERTEX
  8
21
 10
23.0403
 20
16.5921
 30
0.0000
  0
SEQEND
  8
0
  0
POLYLINE
  8
21
 66
1
 10
0.0000
 20
0.0000
 30
0.0000
 40
0.2540
 41
0.2540
 70
0
  0
VERTEX
  8
21
 10
23.1649
 20
16.8064
 30
0.0000
  0
VERTEX
  8
21
 10
23.1649
 20
17.4843
 30
0.0000
  0
SEQEND
  8
0
  0
POLYLINE
  8
21
 66
1
 10
0.0000
 20
0.0000
 30
0.0000
 40
0.1270
 41
0.1270
 70
0
  0
VERTEX
  8
21
 10
23.2284
 20
17.4843
 30
0.0000
 42
1.0000
  0
VERTEX
  8
21
 10
23.1014
 20
17.4843
 30
0.0000
  0
SEQEND
  8
0
  0
POLYLINE
  8
21
 66
1
 10
0.0000
 20
0.0000
 30
0.0000
 40
0.1270
 41
0.1270
 70
0
  0
VERTEX
  8
21
 10
23.1014
 20
16.8064
 30
0.0000
 42
1.0000
  0
VERTEX
  8
21
 10
23.2284
 20
16.8064
 30
0.0000
  0
SEQEND
  8
0
  0
POLYLINE
  8
21
 66
1
 10
0.0000
 20
0.0000
 30
0.0000
 40
0.2540
 41
0.2540
 70
0
  0
VERTEX
  8
21
 10
23.1649
 20
17.4843
 30
0.0000
  0
VERTEX
  8
21
 10
22.9954
 20
17.6538
 30
0.0000
  0
SEQEND
  8
0
  0
POLYLINE
  8
21
 66
1
 10
0.0000
 20
0.0000
 30
0.0000
 40
0.1270
 41
0.1270
 70
0
  0
VERTEX
  8
21
 10
23.0403
 20
17.6987
 30
0.0000
 42
1.0000
  0
VERTEX
  8
21
 10
22.9505
 20
17.6089
 30
0.0000
  0
SEQEND
  8
0
  0
POLYLINE
  8
21
 66
1
 10
0.0000
 20
0.0000
 30
0.0000
 40
0.1270
 41
0.1270
 70
0
  0
VERTEX
  8
21
 10
23.1200
 20
17.4394
 30
0.0000
 42
1.0000
  0
VERTEX
  8
21
 10
23.2098
 20
17.5292
 30
0.0000
  0
SEQEND
  8
0
  0
POLYLINE
  8
21
 66
1
 10
0.0000
 20
0.0000
 30
0.0000
 40
0.2540
 41
0.2540
 70
0
  0
VERTEX
  8
21
 10
22.9954
 20
17.6538
 30
0.0000
  0
VERTEX
  8
21
 10
22.4870
 20
17.6538
 30
0.0000
  0
SEQEND
  8
0
  0
POLYLINE
  8
21
 66
1
 10
0.0000
 20
0.0000
 30
0.0000
 40
0.1270
 41
0.1270
 70
0
  0
VERTEX
  8
21
 10
22.4870
 20
17.7173
 30
0.0000
 42
1.0000
  0
VERTEX
  8
21
 10
22.4870
 20
17.5903
 30
0.0000
  0
SEQEND
  8
0
  0
POLYLINE
  8
21
 66
1
 10
0.0000
 20
0.0000
 30
0.0000
 40
0.1270
 41
0.1270
 70
0
  0
VERTEX
  8
21
 10
22.9954
 20
17.5903
 30
0.0000
 42
1.0000
  0
VERTEX
  8
21
 10
22.9954
 20
17.7173
 30
0.0000
  0
SEQEND
  8
0
  0
POLYLINE
  8
21
 66
1
 10
0.0000
 20
0.0000
 30
0.0000
 40
0.2540
 41
0.2540
 70
0
  0
VERTEX
  8
21
 10
23.6563
 20
16.6370
 30
0.0000
  0
VERTEX
  8
21
 10
23.6563
 20
17.6538
 30
0.0000
  0
SEQEND
  8
0
  0
POLYLINE
  8
21
 66
1
 10
0.0000
 20
0.0000
 30
0.0000
 40
0.1270
 41
0.1270
 70
0
  0
VERTEX
  8
21
 10
23.7198
 20
17.6538
 30
0.0000
 42
1.0000
  0
VERTEX
  8
21
 10
23.5928
 20
17.6538
 30
0.0000
  0
SEQEND
  8
0
  0
POLYLINE
  8
21
 66
1
 10
0.0000
 20
0.0000
 30
0.0000
 40
0.1270
 41
0.1270
 70
0
  0
VERTEX
  8
21
 10
23.5928
 20
16.6370
 30
0.0000
 42
1.0000
  0
VERTEX
  8
21
 10
23.7198
 20
16.6370
 30
0.0000
  0
SEQEND
  8
0
  0
POLYLINE
  8
21
 66
1
 10
0.0000
 20
0.0000
 30
0.0000
 40
0.2540
 41
0.2540
 70
0
  0
VERTEX
  8
21
 10
23.6563
 20
17.6538
 30
0.0000
  0
VERTEX
  8
21
 10
24.1647
 20
17.6538
 30
0.0000
  0
SEQEND
  8
0
  0
POLYLINE
  8
21
 66
1
 10
0.0000
 20
0.0000
 30
0.0000
 40
0.1270
 41
0.1270
 70
0
  0
VERTEX
  8
21
 10
24.1647
 20
17.5903
 30
0.0000
 42
1.0000
  0
VERTEX
  8
21
 10
24.1647
 20
17.7173
 30
0.0000
  0
SEQEND
  8
0
  0
POLYLINE
  8
21
 66
1
 10
0.0000
 20
0.0000
 30
0.0000
 40
0.1270
 41
0.1270
 70
0
  0
VERTEX
  8
21
 10
23.6563
 20
17.7173
 30
0.0000
 42
1.0000
  0
VERTEX
  8
21
 10
23.6563
 20
17.5903
 30
0.0000
  0
SEQEND
  8
0
  0
POLYLINE
  8
21
 66
1
 10
0.0000
 20
0.0000
 30
0.0000
 40
0.2540
 41
0.2540
 70
0
  0
VERTEX
  8
21
 10
24.1647
 20
17.6538
 30
0.0000
  0
VERTEX
  8
21
 10
24.3342
 20
17.4843
 30
0.0000
  0
SEQEND
  8
0
  0
POLYLINE
  8
21
 66
1
 10
0.0000
 20
0.0000
 30
0.0000
 40
0.1270
 41
0.1270
 70
0
  0
VERTEX
  8
21
 10
24.2893
 20
17.4394
 30
0.0000
 42
1.0000
  0
VERTEX
  8
21
 10
24.3791
 20
17.5292
 30
0.0000
  0
SEQEND
  8
0
  0
POLYLINE
  8
21
 66
1
 10
0.0000
 20
0.0000
 30
0.0000
 40
0.1270
 41
0.1270
 70
0
  0
VERTEX
  8
21
 10
24.2096
 20
17.6987
 30
0.0000
 42
1.0000
  0
VERTEX
  8
21
 10
24.1198
 20
17.6089
 30
0.0000
  0
SEQEND
  8
0
  0
POLYLINE
  8
21
 66
1
 10
0.0000
 20
0.0000
 30
0.0000
 40
0.2540
 41
0.2540
 70
0
  0
VERTEX
  8
21
 10
24.3342
 20
17.4843
 30
0.0000
  0
VERTEX
  8
21
 10
24.3342
 20
17.1454
 30
0.0000
  0
SEQEND
  8
0
  0
POLYLINE
  8
21
 66
1
 10
0.0000
 20
0.0000
 30
0.0000
 40
0.1270
 41
0.1270
 70
0
  0
VERTEX
  8
21
 10
24.2707
 20
17.1454
 30
0.0000
 42
1.0000
  0
VERTEX
  8
21
 10
24.3977
 20
17.1454
 30
0.0000
  0
SEQEND
  8
0
  0
POLYLINE
  8
21
 66
1
 10
0.0000
 20
0.0000
 30
0.0000
 40
0.1270
 41
0.1270
 70
0
  0
VERTEX
  8
21
 10
24.3977
 20
17.4843
 30
0.0000
 42
1.0000
  0
VERTEX
  8
21
 10
24.2707
 20
17.4843
 30
0.0000
  0
SEQEND
  8
0
  0
POLYLINE
  8
21
 66
1
 10
0.0000
 20
0.0000
 30
0.0000
 40
0.2540
 41
0.2540
 70
0
  0
VERTEX
  8
21
 10
24.3342
 20
17.1454
 30
0.0000
  0
VERTEX
  8
21
 10
24.1647
 20
16.9759
 30
0.0000
  0
SEQEND
  8
0
  0
POLYLINE
  8
21
 66
1
 10
0.0000
 20
0.0000
 30
0.0000
 40
0.1270
 41
0.1270
 70
0
  0
VERTEX
  8
21
 10
24.1198
 20
17.0208
 30
0.0000
 42
1.0000
  0
VERTEX
  8
21
 10
24.2096
 20
16.9310
 30
0.0000
  0
SEQEND
  8
0
  0
POLYLINE
  8
21
 66
1
 10
0.0000
 20
0.0000
 30
0.0000
 40
0.1270
 41
0.1270
 70
0
  0
VERTEX
  8
21
 10
24.3791
 20
17.1005
 30
0.0000
 42
1.0000
  0
VERTEX
  8
21
 10
24.2893
 20
17.1903
 30
0.0000
  0
SEQEND
  8
0
  0
POLYLINE
  8
21
 66
1
 10
0.0000
 20
0.0000
 30
0.0000
 40
0.2540
 41
0.2540
 70
0
  0
VERTEX
  8
21
 10
24.1647
 20
16.9759
 30
0.0000
  0
VERTEX
  8
21
 10
23.6563
 20
16.9759
 30
0.0000
  0
SEQEND
  8
0
  0
POLYLINE
  8
21
 66
1
 10
0.0000
 20
0.0000
 30
0.0000
 40
0.1270
 41
0.1270
 70
0
  0
VERTEX
  8
21
 10
23.6563
 20
17.0394
 30
0.0000
 42
1.0000
  0
VERTEX
  8
21
 10
23.6563
 20
16.9124
 30
0.0000
  0
SEQEND
  8
0
  0
POLYLINE
  8
21
 66
1
 10
0.0000
 20
0.0000
 30
0.0000
 40
0.1270
 41
0.1270
 70
0
  0
VERTEX
  8
21
 10
24.1647
 20
16.9124
 30
0.0000
 42
1.0000
  0
VERTEX
  8
21
 10
24.1647
 20
17.0394
 30
0.0000
  0
SEQEND
  8
0
  0
POLYLINE
  8
21
 66
1
 10
0.0000
 20
0.0000
 30
0.0000
 40
0.2540
 41
0.2540
 70
0
  0
VERTEX
  8
21
 10
35.1870
 20
17.6538
 30
0.0000
  0
VERTEX
  8
21
 10
35.1870
 20
16.6370
 30
0.0000
  0
SEQEND
  8
0
  0
POLYLINE
  8
21
 66
1
 10
0.0000
 20
0.0000
 30
0.0000
 40
0.1270
 41
0.1270
 70
0
  0
VERTEX
  8
21
 10
35.1235
 20
16.6370
 30
0.0000
 42
1.0000
  0
VERTEX
  8
21
 10
35.2505
 20
16.6370
 30
0.0000
  0
SEQEND
  8
0
  0
POLYLINE
  8
21
 66
1
 10
0.0000
 20
0.0000
 30
0.0000
 40
0.1270
 41
0.1270
 70
0
  0
VERTEX
  8
21
 10
35.2505
 20
17.6538
 30
0.0000
 42
1.0000
  0
VERTEX
  8
21
 10
35.1235
 20
17.6538
 30
0.0000
  0
SEQEND
  8
0
  0
POLYLINE
  8
21
 66
1
 10
0.0000
 20
0.0000
 30
0.0000
 40
0.2540
 41
0.2540
 70
0
  0
VERTEX
  8
21
 10
35.1870
 20
16.6370
 30
0.0000
  0
VERTEX
  8
21
 10
35.6954
 20
16.6370
 30
0.0000
  0
SEQEND
  8
0
  0
POLYLINE
  8
21
 66
1
 10
0.0000
 20
0.0000
 30
0.0000
 40
0.1270
 41
0.1270
 70
0
  0
VERTEX
  8
21
 10
35.6954
 20
16.5735
 30
0.0000
 42
1.0000
  0
VERTEX
  8
21
 10
35.6954
 20
16.7005
 30
0.0000
  0
SEQEND
  8
0
  0
POLYLINE
  8
21
 66
1
 10
0.0000
 20
0.0000
 30
0.0000
 40
0.1270
 41
0.1270
 70
0
  0
VERTEX
  8
21
 10
35.1870
 20
16.7005
 30
0.0000
 42
1.0000
  0
VERTEX
  8
21
 10
35.1870
 20
16.5735
 30
0.0000
  0
SEQEND
  8
0
  0
POLYLINE
  8
21
 66
1
 10
0.0000
 20
0.0000
 30
0.0000
 40
0.2540
 41
0.2540
 70
0
  0
VERTEX
  8
21
 10
35.6954
 20
16.6370
 30
0.0000
  0
VERTEX
  8
21
 10
35.8649
 20
16.8064
 30
0.0000
  0
SEQEND
  8
0
  0
POLYLINE
  8
21
 66
1
 10
0.0000
 20
0.0000
 30
0.0000
 40
0.1270
 41
0.1270
 70
0
  0
VERTEX
  8
21
 10
35.9098
 20
16.7615
 30
0.0000
 42
1.0000
  0
VERTEX
  8
21
 10
35.8200
 20
16.8513
 30
0.0000
  0
SEQEND
  8
0
  0
POLYLINE
  8
21
 66
1
 10
0.0000
 20
0.0000
 30
0.0000
 40
0.1270
 41
0.1270
 70
0
  0
VERTEX
  8
21
 10
35.6505
 20
16.6819
 30
0.0000
 42
1.0000
  0
VERTEX
  8
21
 10
35.7403
 20
16.5921
 30
0.0000
  0
SEQEND
  8
0
  0
POLYLINE
  8
21
 66
1
 10
0.0000
 20
0.0000
 30
0.0000
 40
0.2540
 41
0.2540
 70
0
  0
VERTEX
  8
21
 10
35.8649
 20
16.8064
 30
0.0000
  0
VERTEX
  8
21
 10
35.8649
 20
17.4843
 30
0.0000
  0
SEQEND
  8
0
  0
POLYLINE
  8
21
 66
1
 10
0.0000
 20
0.0000
 30
0.0000
 40
0.1270
 41
0.1270
 70
0
  0
VERTEX
  8
21
 10
35.9284
 20
17.4843
 30
0.0000
 42
1.0000
  0
VERTEX
  8
21
 10
35.8014
 20
17.4843
 30
0.0000
  0
SEQEND
  8
0
  0
POLYLINE
  8
21
 66
1
 10
0.0000
 20
0.0000
 30
0.0000
 40
0.1270
 41
0.1270
 70
0
  0
VERTEX
  8
21
 10
35.8014
 20
16.8064
 30
0.0000
 42
1.0000
  0
VERTEX
  8
21
 10
35.9284
 20
16.8064
 30
0.0000
  0
SEQEND
  8
0
  0
POLYLINE
  8
21
 66
1
 10
0.0000
 20
0.0000
 30
0.0000
 40
0.2540
 41
0.2540
 70
0
  0
VERTEX
  8
21
 10
35.8649
 20
17.4843
 30
0.0000
  0
VERTEX
  8
21
 10
35.6954
 20
17.6538
 30
0.0000
  0
SEQEND
  8
0
  0
POLYLINE
  8
21
 66
1
 10
0.0000
 20
0.0000
 30
0.0000
 40
0.1270
 41
0.1270
 70
0
  0
VERTEX
  8
21
 10
35.7403
 20
17.6987
 30
0.0000
 42
1.0000
  0
VERTEX
  8
21
 10
35.6505
 20
17.6089
 30
0.0000
  0
SEQEND
  8
0
  0
POLYLINE
  8
21
 66
1
 10
0.0000
 20
0.0000
 30
0.0000
 40
0.1270
 41
0.1270
 70
0
  0
VERTEX
  8
21
 10
35.8200
 20
17.4394
 30
0.0000
 42
1.0000
  0
VERTEX
  8
21
 10
35.9098
 20
17.5292
 30
0.0000
  0
SEQEND
  8
0
  0
POLYLINE
  8
21
 66
1
 10
0.0000
 20
0.0000
 30
0.0000
 40
0.2540
 41
0.2540
 70
0
  0
VERTEX
  8
21
 10
35.6954
 20
17.6538
 30
0.0000
  0
VERTEX
  8
21
 10
35.1870
 20
17.6538
 30
0.0000
  0
SEQEND
  8
0
  0
POLYLINE
  8
21
 66
1
 10
0.0000
 20
0.0000
 30
0.0000
 40
0.1270
 41
0.1270
 70
0
  0
VERTEX
  8
21
 10
35.1870
 20
17.7173
 30
0.0000
 42
1.0000
  0
VERTEX
  8
21
 10
35.1870
 20
17.5903
 30
0.0000
  0
SEQEND
  8
0
  0
POLYLINE
  8
21
 66
1
 10
0.0000
 20
0.0000
 30
0.0000
 40
0.1270
 41
0.1270
 70
0
  0
VERTEX
  8
21
 10
35.6954
 20
17.5903
 30
0.0000
 42
1.0000
  0
VERTEX
  8
21
 10
35.6954
 20
17.7173
 30
0.0000
  0
SEQEND
  8
0
  0
POLYLINE
  8
21
 66
1
 10
0.0000
 20
0.0000
 30
0.0000
 40
0.2540
 41
0.2540
 70
0
  0
VERTEX
  8
21
 10
36.3563
 20
16.6370
 30
0.0000
  0
VERTEX
  8
21
 10
36.3563
 20
17.6538
 30
0.0000
  0
SEQEND
  8
0
  0
POLYLINE
  8
21
 66
1
 10
0.0000
 20
0.0000
 30
0.0000
 40
0.1270
 41
0.1270
 70
0
  0
VERTEX
  8
21
 10
36.4198
 20
17.6538
 30
0.0000
 42
1.0000
  0
VERTEX
  8
21
 10
36.2928
 20
17.6538
 30
0.0000
  0
SEQEND
  8
0
  0
POLYLINE
  8
21
 66
1
 10
0.0000
 20
0.0000
 30
0.0000
 40
0.1270
 41
0.1270
 70
0
  0
VERTEX
  8
21
 10
36.2928
 20
16.6370
 30
0.0000
 42
1.0000
  0
VERTEX
  8
21
 10
36.4198
 20
16.6370
 30
0.0000
  0
SEQEND
  8
0
  0
POLYLINE
  8
21
 66
1
 10
0.0000
 20
0.0000
 30
0.0000
 40
0.2540
 41
0.2540
 70
0
  0
VERTEX
  8
21
 10
36.3563
 20
17.6538
 30
0.0000
  0
VERTEX
  8
21
 10
36.8647
 20
17.6538
 30
0.0000
  0
SEQEND
  8
0
  0
POLYLINE
  8
21
 66
1
 10
0.0000
 20
0.0000
 30
0.0000
 40
0.1270
 41
0.1270
 70
0
  0
VERTEX
  8
21
 10
36.8647
 20
17.5903
 30
0.0000
 42
1.0000
  0
VERTEX
  8
21
 10
36.8647
 20
17.7173
 30
0.0000
  0
SEQEND
  8
0
  0
POLYLINE
  8
21
 66
1
 10
0.0000
 20
0.0000
 30
0.0000
 40
0.1270
 41
0.1270
 70
0
  0
VERTEX
  8
21
 10
36.3563
 20
17.7173
 30
0.0000
 42
1.0000
  0
VERTEX
  8
21
 10
36.3563
 20
17.5903
 30
0.0000
  0
SEQEND
  8
0
  0
POLYLINE
  8
21
 66
1
 10
0.0000
 20
0.0000
 30
0.0000
 40
0.2540
 41
0.2540
 70
0
  0
VERTEX
  8
21
 10
36.8647
 20
17.6538
 30
0.0000
  0
VERTEX
  8
21
 10
37.0342
 20
17.4843
 30
0.0000
  0
SEQEND
  8
0
  0
POLYLINE
  8
21
 66
1
 10
0.0000
 20
0.0000
 30
0.0000
 40
0.1270
 41
0.1270
 70
0
  0
VERTEX
  8
21
 10
36.9893
 20
17.4394
 30
0.0000
 42
1.0000
  0
VERTEX
  8
21
 10
37.0791
 20
17.5292
 30
0.0000
  0
SEQEND
  8
0
  0
POLYLINE
  8
21
 66
1
 10
0.0000
 20
0.0000
 30
0.0000
 40
0.1270
 41
0.1270
 70
0
  0
VERTEX
  8
21
 10
36.9096
 20
17.6987
 30
0.0000
 42
1.0000
  0
VERTEX
  8
21
 10
36.8198
 20
17.6089
 30
0.0000
  0
SEQEND
  8
0
  0
POLYLINE
  8
21
 66
1
 10
0.0000
 20
0.0000
 30
0.0000
 40
0.2540
 41
0.2540
 70
0
  0
VERTEX
  8
21
 10
37.0342
 20
17.4843
 30
0.0000
  0
VERTEX
  8
21
 10
37.0342
 20
17.1454
 30
0.0000
  0
SEQEND
  8
0
  0
POLYLINE
  8
21
 66
1
 10
0.0000
 20
0.0000
 30
0.0000
 40
0.1270
 41
0.1270
 70
0
  0
VERTEX
  8
21
 10
36.9707
 20
17.1454
 30
0.0000
 42
1.0000
  0
VERTEX
  8
21
 10
37.0977
 20
17.1454
 30
0.0000
  0
SEQEND
  8
0
  0
POLYLINE
  8
21
 66
1
 10
0.0000
 20
0.0000
 30
0.0000
 40
0.1270
 41
0.1270
 70
0
  0
VERTEX
  8
21
 10
37.0977
 20
17.4843
 30
0.0000
 42
1.0000
  0
VERTEX
  8
21
 10
36.9707
 20
17.4843
 30
0.0000
  0
SEQEND
  8
0
  0
POLYLINE
  8
21
 66
1
 10
0.0000
 20
0.0000
 30
0.0000
 40
0.2540
 41
0.2540
 70
0
  0
VERTEX
  8
21
 10
37.0342
 20
17.1454
 30
0.0000
  0
VERTEX
  8
21
 10
36.8647
 20
16.9759
 30
0.0000
  0
SEQEND
  8
0
  0
POLYLINE
  8
21
 66
1
 10
0.0000
 20
0.0000
 30
0.0000
 40
0.1270
 41
0.1270
 70
0
  0
VERTEX
  8
21
 10
36.8198
 20
17.0208
 30
0.0000
 42
1.0000
  0
VERTEX
  8
21
 10
36.9096
 20
16.9310
 30
0.0000
  0
SEQEND
  8
0
  0
POLYLINE
  8
21
 66
1
 10
0.0000
 20
0.0000
 30
0.0000
 40
0.1270
 41
0.1270
 70
0
  0
VERTEX
  8
21
 10
37.0791
 20
17.1005
 30
0.0000
 42
1.0000
  0
VERTEX
  8
21
 10
36.9893
 20
17.1903
 30
0.0000
  0
SEQEND
  8
0
  0
POLYLINE
  8
21
 66
1
 10
0.0000
 20
0.0000
 30
0.0000
 40
0.2540
 41
0.2540
 70
0
  0
VERTEX
  8
21
 10
36.8647
 20
16.9759
 30
0.0000
  0
VERTEX
  8
21
 10
36.3563
 20
16.9759
 30
0.0000
  0
SEQEND
  8
0
  0
POLYLINE
  8
21
 66
1
 10
0.0000
 20
0.0000
 30
0.0000
 40
0.1270
 41
0.1270
 70
0
  0
VERTEX
  8
21
 10
36.3563
 20
17.0394
 30
0.0000
 42
1.0000
  0
VERTEX
  8
21
 10
36.3563
 20
16.9124
 30
0.0000
  0
SEQEND
  8
0
  0
POLYLINE
  8
21
 66
1
 10
0.0000
 20
0.0000
 30
0.0000
 40
0.1270
 41
0.1270
 70
0
  0
VERTEX
  8
21
 10
36.8647
 20
16.9124
 30
0.0000
 42
1.0000
  0
VERTEX
  8
21
 10
36.8647
 20
17.0394
 30
0.0000
  0
SEQEND
  8
0
  0
POLYLINE
  8
21
 66
1
 10
0.0000
 20
0.0000
 30
0.0000
 40
0.2540
 41
0.2540
 70
0
  0
VERTEX
  8
21
 10
24.2650
 20
14.6050
 30
0.0000
 42
1.0000
  0
VERTEX
  8
21
 10
24.2650
 20
15.8750
 30
0.0000
 42
1.0000
  0
VERTEX
  8
21
 10
24.2650
 20
14.6050
 30
0.0000
  0
SEQEND
  8
0
  0
POLYLINE
  8
21
 66
1
 10
0.0000
 20
0.0000
 30
0.0000
 40
0.2540
 41
0.2540
 70
0
  0
VERTEX
  8
21
 10
36.9650
 20
14.6050
 30
0.0000
 42
1.0000
  0
VERTEX
  8
21
 10
36.9650
 20
15.8750
 30
0.0000
 42
1.0000
  0
VERTEX
  8
21
 10
36.9650
 20
14.6050
 30
0.0000
  0
SEQEND
  8
0
  0
INSERT
  8
17
  2
ROUNDP
 10
16.0100
 20
13.9700
 30
0.0000
 41
1.4080
 42
1.4080
 43
1.0000
 50
90.0000
  0
INSERT
  8
17
  2
ROUNDP
 10
16.0100
 20
13.9700
 30
0.0000
 41
1.4080
 42
1.4080
 43
1.0000
 50
90.0000
  0
INSERT
  8
17
  2
ROUNDP
 10
18.5500
 20
13.9700
 30
0.0000
 41
1.4080
 42
1.4080
 43
1.0000
 50
90.0000
  0
INSERT
  8
17
  2
ROUNDP
 10
18.5500
 20
13.9700
 30
0.0000
 41
1.4080
 42
1.4080
 43
1.0000
 50
90.0000
  0
INSERT
  8
17
  2
ROUNDP
 10
21.0900
 20
13.9700
 30
0.0000
 41
1.4080
 42
1.4080
 43
1.0000
 50
90.0000
  0
INSERT
  8
17
  2
ROUNDP
 10
21.0900
 20
13.9700
 30
0.0000
 41
1.4080
 42
1.4080
 43
1.0000
 50
90.0000
  0
INSERT
  8
17
  2
ROUNDP
 10
23.6300
 20
13.9700
 30
0.0000
 41
1.4080
 42
1.4080
 43
1.0000
 50
90.0000
  0
INSERT
  8
17
  2
ROUNDP
 10
23.6300
 20
13.9700
 30
0.0000
 41
1.4080
 42
1.4080
 43
1.0000
 50
90.0000
  0
INSERT
  8
17
  2
ROUNDP
 10
26.1700
 20
13.9700
 30
0.0000
 41
1.4080
 42
1.4080
 43
1.0000
 50
90.0000
  0
INSERT
  8
17
  2
ROUNDP
 10
26.1700
 20
13.9700
 30
0.0000
 41
1.4080
 42
1.4080
 43
1.0000
 50
90.0000
  0
INSERT
  8
17
  2
ROUNDP
 10
28.7100
 20
13.9700
 30
0.0000
 41
1.4080
 42
1.4080
 43
1.0000
 50
90.0000
  0
INSERT
  8
17
  2
ROUNDP
 10
28.7100
 20
13.9700
 30
0.0000
 41
1.4080
 42
1.4080
 43
1.0000
 50
90.0000
  0
INSERT
  8
17
  2
ROUNDP
 10
31.2500
 20
13.9700
 30
0.0000
 41
1.4080
 42
1.4080
 43
1.0000
 50
90.0000
  0
INSERT
  8
17
  2
ROUNDP
 10
31.2500
 20
13.9700
 30
0.0000
 41
1.4080
 42
1.4080
 43
1.0000
 50
90.0000
  0
INSERT
  8
17
  2
ROUNDP
 10
33.7900
 20
13.9700
 30
0.0000
 41
1.4080
 42
1.4080
 43
1.0000
 50
90.0000
  0
INSERT
  8
17
  2
ROUNDP
 10
33.7900
 20
13.9700
 30
0.0000
 41
1.4080
 42
1.4080
 43
1.0000
 50
90.0000
  0
INSERT
  8
17
  2
ROUNDP
 10
36.3300
 20
13.9700
 30
0.0000
 41
1.4080
 42
1.4080
 43
1.0000
 50
90.0000
  0
INSERT
  8
17
  2
ROUNDP
 10
36.3300
 20
13.9700
 30
0.0000
 41
1.4080
 42
1.4080
 43
1.0000
 50
90.0000
  0
INSERT
  8
17
  2
ROUNDP
 10
36.3300
 20
29.2100
 30
0.0000
 41
1.4080
 42
1.4080
 43
1.0000
 50
90.0000
  0
INSERT
  8
17
  2
ROUNDP
 10
36.3300
 20
29.2100
 30
0.0000
 41
1.4080
 42
1.4080
 43
1.0000
 50
90.0000
  0
INSERT
  8
17
  2
ROUNDP
 10
33.7900
 20
29.2100
 30
0.0000
 41
1.4080
 42
1.4080
 43
1.0000
 50
90.0000
  0
INSERT
  8
17
  2
ROUNDP
 10
33.7900
 20
29.2100
 30
0.0000
 41
1.4080
 42
1.4080
 43
1.0000
 50
90.0000
  0
INSERT
  8
17
  2
ROUNDP
 10
31.2500
 20
29.2100
 30
0.0000
 41
1.4080
 42
1.4080
 43
1.0000
 50
90.0000
  0
INSERT
  8
17
  2
ROUNDP
 10
31.2500
 20
29.2100
 30
0.0000
 41
1.4080
 42
1.4080
 43
1.0000
 50
90.0000
  0
INSERT
  8
17
  2
ROUNDP
 10
28.7100
 20
29.2100
 30
0.0000
 41
1.4080
 42
1.4080
 43
1.0000
 50
90.0000
  0
INSERT
  8
17
  2
ROUNDP
 10
28.7100
 20
29.2100
 30
0.0000
 41
1.4080
 42
1.4080
 43
1.0000
 50
90.0000
  0
INSERT
  8
17
  2
ROUNDP
 10
26.1700
 20
29.2100
 30
0.0000
 41
1.4080
 42
1.4080
 43
1.0000
 50
90.0000
  0
INSERT
  8
17
  2
ROUNDP
 10
26.1700
 20
29.2100
 30
0.0000
 41
1.4080
 42
1.4080
 43
1.0000
 50
90.0000
  0
INSERT
  8
17
  2
ROUNDP
 10
23.6300
 20
29.2100
 30
0.0000
 41
1.4080
 42
1.4080
 43
1.0000
 50
90.0000
  0
INSERT
  8
17
  2
ROUNDP
 10
23.6300
 20
29.2100
 30
0.0000
 41
1.4080
 42
1.4080
 43
1.0000
 50
90.0000
  0
INSERT
  8
17
  2
ROUNDP
 10
21.0900
 20
29.2100
 30
0.0000
 41
1.4080
 42
1.4080
 43
1.0000
 50
90.0000
  0
INSERT
  8
17
  2
ROUNDP
 10
21.0900
 20
29.2100
 30
0.0000
 41
1.4080
 42
1.4080
 43
1.0000
 50
90.0000
  0
INSERT
  8
17
  2
ROUNDP
 10
18.5500
 20
29.2100
 30
0.0000
 41
1.4080
 42
1.4080
 43
1.0000
 50
90.0000
  0
INSERT
  8
17
  2
ROUNDP
 10
18.5500
 20
29.2100
 30
0.0000
 41
1.4080
 42
1.4080
 43
1.0000
 50
90.0000
  0
INSERT
  8
17
  2
ROUNDP
 10
16.0100
 20
29.2100
 30
0.0000
 41
1.4080
 42
1.4080
 43
1.0000
 50
90.0000
  0
INSERT
  8
17
  2
ROUNDP
 10
16.0100
 20
29.2100
 30
0.0000
 41
1.4080
 42
1.4080
 43
1.0000
 50
90.0000
  0
POLYLINE
  8
21
 66
1
 10
0.0000
 20
0.0000
 30
0.0000
 40
0.2540
 41
0.2540
 70
0
  0
VERTEX
  8
21
 10
51.5700
 20
11.9300
 30
0.0000
  0
VERTEX
  8
21
 10
38.8700
 20
11.9300
 30
0.0000
  0
SEQEND
  8
0
  0
POLYLINE
  8
21
 66
1
 10
0.0000
 20
0.0000
 30
0.0000
 40
0.1270
 41
0.1270
 70
0
  0
VERTEX
  8
21
 10
38.8700
 20
11.9935
 30
0.0000
 42
1.0000
  0
VERTEX
  8
21
 10
38.8700
 20
11.8665
 30
0.0000
  0
SEQEND
  8
0
  0
POLYLINE
  8
21
 66
1
 10
0.0000
 20
0.0000
 30
0.0000
 40
0.1270
 41
0.1270
 70
0
  0
VERTEX
  8
21
 10
51.5700
 20
11.8665
 30
0.0000
 42
1.0000
  0
VERTEX
  8
21
 10
51.5700
 20
11.9935
 30
0.0000
  0
SEQEND
  8
0
  0
POLYLINE
  8
21
 66
1
 10
0.0000
 20
0.0000
 30
0.0000
 40
0.2540
 41
0.2540
 70
0
  0
VERTEX
  8
21
 10
38.8700
 20
11.9300
 30
0.0000
  0
VERTEX
  8
21
 10
38.8700
 20
31.2500
 30
0.0000
  0
SEQEND
  8
0
  0
POLYLINE
  8
21
 66
1
 10
0.0000
 20
0.0000
 30
0.0000
 40
0.1270
 41
0.1270
 70
0
  0
VERTEX
  8
21
 10
38.9335
 20
31.2500
 30
0.0000
 42
1.0000
  0
VERTEX
  8
21
 10
38.8065
 20
31.2500
 30
0.0000
  0
SEQEND
  8
0
  0
POLYLINE
  8
21
 66
1
 10
0.0000
 20
0.0000
 30
0.0000
 40
0.1270
 41
0.1270
 70
0
  0
VERTEX
  8
21
 10
38.8065
 20
11.9300
 30
0.0000
 42
1.0000
  0
VERTEX
  8
21
 10
38.9335
 20
11.9300
 30
0.0000
  0
SEQEND
  8
0
  0
POLYLINE
  8
21
 66
1
 10
0.0000
 20
0.0000
 30
0.0000
 40
0.2540
 41
0.2540
 70
0
  0
VERTEX
  8
21
 10
38.8700
 20
31.2500
 30
0.0000
  0
VERTEX
  8
21
 10
51.5700
 20
31.2500
 30
0.0000
  0
SEQEND
  8
0
  0
POLYLINE
  8
21
 66
1
 10
0.0000
 20
0.0000
 30
0.0000
 40
0.1270
 41
0.1270
 70
0
  0
VERTEX
  8
21
 10
51.5700
 20
31.1865
 30
0.0000
 42
1.0000
  0
VERTEX
  8
21
 10
51.5700
 20
31.3135
 30
0.0000
  0
SEQEND
  8
0
  0
POLYLINE
  8
21
 66
1
 10
0.0000
 20
0.0000
 30
0.0000
 40
0.1270
 41
0.1270
 70
0
  0
VERTEX
  8
21
 10
38.8700
 20
31.3135
 30
0.0000
 42
1.0000
  0
VERTEX
  8
21
 10
38.8700
 20
31.1865
 30
0.0000
  0
SEQEND
  8
0
  0
LINE
  8
51
 10
49.9698
 20
27.8638
 30
0.0000
 11
49.2840
 21
27.1780
 31
0.0000
  0
LINE
  8
51
 10
49.2840
 20
27.1780
 30
0.0000
 11
48.4458
 21
22.3774
 31
0.0000
  0
LINE
  8
51
 10
48.4458
 20
22.3774
 30
0.0000
 11
48.9284
 21
21.8948
 31
0.0000
  0
LINE
  8
51
 10
48.9284
 20
21.8948
 30
0.0000
 11
49.5380
 21
22.5044
 31
0.0000
  0
LINE
  8
51
 10
49.5380
 20
22.5044
 30
0.0000
 11
50.3762
 21
27.4574
 31
0.0000
  0
LINE
  8
51
 10
50.3762
 20
27.4574
 30
0.0000
 11
49.9698
 21
27.8638
 31
0.0000
  0
LINE
  8
51
 10
49.5126
 20
28.3210
 30
0.0000
 11
48.8776
 21
27.6860
 31
0.0000
  0
LINE
  8
51
 10
48.8776
 20
27.6860
 30
0.0000
 11
43.5944
 21
27.6860
 31
0.0000
  0
LINE
  8
51
 10
43.5944
 20
27.6860
 30
0.0000
 11
42.9086
 21
28.3718
 31
0.0000
  0
LINE
  8
51
 10
42.9086
 20
28.3718
 30
0.0000
 11
43.2388
 21
28.7020
 31
0.0000
  0
LINE
  8
51
 10
43.2388
 20
28.7020
 30
0.0000
 11
49.1316
 21
28.7020
 31
0.0000
  0
LINE
  8
51
 10
49.1316
 20
28.7020
 30
0.0000
 11
49.5126
 21
28.3210
 31
0.0000
  0
LINE
  8
51
 10
42.4514
 20
27.9146
 30
0.0000
 11
43.0864
 21
27.2796
 31
0.0000
  0
LINE
  8
51
 10
43.0864
 20
27.2796
 30
0.0000
 11
42.2482
 21
22.4028
 31
0.0000
  0
LINE
  8
51
 10
42.2482
 20
22.4028
 30
0.0000
 11
41.6640
 21
21.8186
 31
0.0000
  0
LINE
  8
51
 10
41.6640
 20
21.8186
 30
0.0000
 11
41.1814
 21
22.3012
 31
0.0000
  0
LINE
  8
51
 10
41.1814
 20
22.3012
 30
0.0000
 11
42.0958
 21
27.5590
 31
0.0000
  0
LINE
  8
51
 10
42.0958
 20
27.5590
 30
0.0000
 11
42.4514
 21
27.9146
 31
0.0000
  0
LINE
  8
51
 10
42.1466
 20
21.3360
 30
0.0000
 11
42.7816
 21
21.9710
 31
0.0000
  0
LINE
  8
51
 10
42.7816
 20
21.9710
 30
0.0000
 11
47.9124
 21
21.9710
 31
0.0000
  0
LINE
  8
51
 10
47.9124
 20
21.9710
 30
0.0000
 11
48.4204
 21
21.4630
 31
0.0000
  0
LINE
  8
51
 10
48.4204
 20
21.4630
 30
0.0000
 11
47.9124
 21
20.9550
 31
0.0000
  0
LINE
  8
51
 10
47.9124
 20
20.9550
 30
0.0000
 11
42.5276
 21
20.9550
 31
0.0000
  0
LINE
  8
51
 10
42.5276
 20
20.9550
 30
0.0000
 11
42.1466
 21
21.3360
 31
0.0000
  0
LINE
  8
51
 10
41.6640
 20
20.8534
 30
0.0000
 11
41.9180
 21
20.5994
 31
0.0000
  0
LINE
  8
51
 10
40.4702
 20
15.0368
 30
0.0000
 11
41.0544
 21
15.6210
 31
0.0000
  0
LINE
  8
51
 10
41.0544
 20
15.6210
 30
0.0000
 11
41.9180
 21
20.5994
 31
0.0000
  0
LINE
  8
51
 10
41.6640
 20
20.8534
 30
0.0000
 11
40.7750
 21
19.9644
 31
0.0000
  0
LINE
  8
51
 10
40.7750
 20
19.9644
 30
0.0000
 11
39.9876
 21
15.5194
 31
0.0000
  0
LINE
  8
51
 10
39.9876
 20
15.5194
 30
0.0000
 11
40.4702
 21
15.0368
 31
0.0000
  0
LINE
  8
51
 10
40.9528
 20
14.5542
 30
0.0000
 11
41.6386
 21
15.2400
 31
0.0000
  0
LINE
  8
51
 10
41.6386
 20
15.2400
 30
0.0000
 11
46.8964
 21
15.2400
 31
0.0000
  0
LINE
  8
51
 10
46.8964
 20
15.2400
 30
0.0000
 11
47.5822
 21
14.5542
 31
0.0000
  0
LINE
  8
51
 10
47.5822
 20
14.5542
 30
0.0000
 11
47.2520
 21
14.2240
 31
0.0000
  0
LINE
  8
51
 10
47.2520
 20
14.2240
 30
0.0000
 11
41.2830
 21
14.2240
 31
0.0000
  0
LINE
  8
51
 10
41.2830
 20
14.2240
 30
0.0000
 11
40.9528
 21
14.5542
 31
0.0000
  0
LINE
  8
51
 10
48.9030
 20
21.0058
 30
0.0000
 11
48.0648
 21
20.1676
 31
0.0000
  0
LINE
  8
51
 10
48.0648
 20
20.1676
 30
0.0000
 11
47.3028
 21
15.7734
 31
0.0000
  0
LINE
  8
51
 10
47.3028
 20
15.7734
 30
0.0000
 11
48.0648
 21
15.0114
 31
0.0000
  0
LINE
  8
51
 10
48.0648
 20
15.0114
 30
0.0000
 11
48.2680
 21
15.2146
 31
0.0000
  0
LINE
  8
51
 10
48.2680
 20
15.2146
 30
0.0000
 11
49.1824
 21
20.7264
 31
0.0000
  0
LINE
  8
51
 10
49.1824
 20
20.7264
 30
0.0000
 11
48.9030
 21
21.0058
 31
0.0000
  0
POLYLINE
  8
21
 66
1
 10
0.0000
 20
0.0000
 30
0.0000
 40
0.2540
 41
0.2540
 70
0
  0
VERTEX
  8
21
 10
64.2700
 20
31.2500
 30
0.0000
  0
VERTEX
  8
21
 10
64.2700
 20
11.9300
 30
0.0000
  0
SEQEND
  8
0
  0
POLYLINE
  8
21
 66
1
 10
0.0000
 20
0.0000
 30
0.0000
 40
0.1270
 41
0.1270
 70
0
  0
VERTEX
  8
21
 10
64.2065
 20
11.9300
 30
0.0000
 42
1.0000
  0
VERTEX
  8
21
 10
64.3335
 20
11.9300
 30
0.0000
  0
SEQEND
  8
0
  0
POLYLINE
  8
21
 66
1
 10
0.0000
 20
0.0000
 30
0.0000
 40
0.1270
 41
0.1270
 70
0
  0
VERTEX
  8
21
 10
64.3335
 20
31.2500
 30
0.0000
 42
1.0000
  0
VERTEX
  8
21
 10
64.2065
 20
31.2500
 30
0.0000
  0
SEQEND
  8
0
  0
POLYLINE
  8
21
 66
1
 10
0.0000
 20
0.0000
 30
0.0000
 40
0.2540
 41
0.2540
 70
0
  0
VERTEX
  8
21
 10
64.2700
 20
11.9300
 30
0.0000
  0
VERTEX
  8
21
 10
51.5700
 20
11.9300
 30
0.0000
  0
SEQEND
  8
0
  0
POLYLINE
  8
21
 66
1
 10
0.0000
 20
0.0000
 30
0.0000
 40
0.1270
 41
0.1270
 70
0
  0
VERTEX
  8
21
 10
51.5700
 20
11.9935
 30
0.0000
 42
1.0000
  0
VERTEX
  8
21
 10
51.5700
 20
11.8665
 30
0.0000
  0
SEQEND
  8
0
  0
POLYLINE
  8
21
 66
1
 10
0.0000
 20
0.0000
 30
0.0000
 40
0.1270
 41
0.1270
 70
0
  0
VERTEX
  8
21
 10
64.2700
 20
11.8665
 30
0.0000
 42
1.0000
  0
VERTEX
  8
21
 10
64.2700
 20
11.9935
 30
0.0000
  0
SEQEND
  8
0
  0
POLYLINE
  8
21
 66
1
 10
0.0000
 20
0.0000
 30
0.0000
 40
0.2540
 41
0.2540
 70
0
  0
VERTEX
  8
21
 10
51.5700
 20
31.2500
 30
0.0000
  0
VERTEX
  8
21
 10
64.2700
 20
31.2500
 30
0.0000
  0
SEQEND
  8
0
  0
POLYLINE
  8
21
 66
1
 10
0.0000
 20
0.0000
 30
0.0000
 40
0.1270
 41
0.1270
 70
0
  0
VERTEX
  8
21
 10
64.2700
 20
31.1865
 30
0.0000
 42
1.0000
  0
VERTEX
  8
21
 10
64.2700
 20
31.3135
 30
0.0000
  0
SEQEND
  8
0
  0
POLYLINE
  8
21
 66
1
 10
0.0000
 20
0.0000
 30
0.0000
 40
0.1270
 41
0.1270
 70
0
  0
VERTEX
  8
21
 10
51.5700
 20
31.3135
 30
0.0000
 42
1.0000
  0
VERTEX
  8
21
 10
51.5700
 20
31.1865
 30
0.0000
  0
SEQEND
  8
0
  0
LINE
  8
51
 10
62.6698
 20
27.8638
 30
0.0000
 11
61.9840
 21
27.1780
 31
0.0000
  0
LINE
  8
51
 10
61.9840
 20
27.1780
 30
0.0000
 11
61.1458
 21
22.3774
 31
0.0000
  0
LINE
  8
51
 10
61.1458
 20
22.3774
 30
0.0000
 11
61.6284
 21
21.8948
 31
0.0000
  0
LINE
  8
51
 10
61.6284
 20
21.8948
 30
0.0000
 11
62.2380
 21
22.5044
 31
0.0000
  0
LINE
  8
51
 10
62.2380
 20
22.5044
 30
0.0000
 11
63.0762
 21
27.4574
 31
0.0000
  0
LINE
  8
51
 10
63.0762
 20
27.4574
 30
0.0000
 11
62.6698
 21
27.8638
 31
0.0000
  0
LINE
  8
51
 10
62.2126
 20
28.3210
 30
0.0000
 11
61.5776
 21
27.6860
 31
0.0000
  0
LINE
  8
51
 10
61.5776
 20
27.6860
 30
0.0000
 11
56.2944
 21
27.6860
 31
0.0000
  0
LINE
  8
51
 10
56.2944
 20
27.6860
 30
0.0000
 11
55.6086
 21
28.3718
 31
0.0000
  0
LINE
  8
51
 10
55.6086
 20
28.3718
 30
0.0000
 11
55.9388
 21
28.7020
 31
0.0000
  0
LINE
  8
51
 10
55.9388
 20
28.7020
 30
0.0000
 11
61.8316
 21
28.7020
 31
0.0000
  0
LINE
  8
51
 10
61.8316
 20
28.7020
 30
0.0000
 11
62.2126
 21
28.3210
 31
0.0000
  0
LINE
  8
51
 10
55.1514
 20
27.9146
 30
0.0000
 11
55.7864
 21
27.2796
 31
0.0000
  0
LINE
  8
51
 10
55.7864
 20
27.2796
 30
0.0000
 11
54.9482
 21
22.4028
 31
0.0000
  0
LINE
  8
51
 10
54.9482
 20
22.4028
 30
0.0000
 11
54.3640
 21
21.8186
 31
0.0000
  0
LINE
  8
51
 10
54.3640
 20
21.8186
 30
0.0000
 11
53.8814
 21
22.3012
 31
0.0000
  0
LINE
  8
51
 10
53.8814
 20
22.3012
 30
0.0000
 11
54.7958
 21
27.5590
 31
0.0000
  0
LINE
  8
51
 10
54.7958
 20
27.5590
 30
0.0000
 11
55.1514
 21
27.9146
 31
0.0000
  0
LINE
  8
51
 10
54.8466
 20
21.3360
 30
0.0000
 11
55.4816
 21
21.9710
 31
0.0000
  0
LINE
  8
51
 10
55.4816
 20
21.9710
 30
0.0000
 11
60.6124
 21
21.9710
 31
0.0000
  0
LINE
  8
51
 10
60.6124
 20
21.9710
 30
0.0000
 11
61.1204
 21
21.4630
 31
0.0000
  0
LINE
  8
51
 10
61.1204
 20
21.4630
 30
0.0000
 11
60.6124
 21
20.9550
 31
0.0000
  0
LINE
  8
51
 10
60.6124
 20
20.9550
 30
0.0000
 11
55.2276
 21
20.9550
 31
0.0000
  0
LINE
  8
51
 10
55.2276
 20
20.9550
 30
0.0000
 11
54.8466
 21
21.3360
 31
0.0000
  0
LINE
  8
51
 10
54.3640
 20
20.8534
 30
0.0000
 11
54.6180
 21
20.5994
 31
0.0000
  0
LINE
  8
51
 10
53.1702
 20
15.0368
 30
0.0000
 11
53.7544
 21
15.6210
 31
0.0000
  0
LINE
  8
51
 10
53.7544
 20
15.6210
 30
0.0000
 11
54.6180
 21
20.5994
 31
0.0000
  0
LINE
  8
51
 10
54.3640
 20
20.8534
 30
0.0000
 11
53.4750
 21
19.9644
 31
0.0000
  0
LINE
  8
51
 10
53.4750
 20
19.9644
 30
0.0000
 11
52.6876
 21
15.5194
 31
0.0000
  0
LINE
  8
51
 10
52.6876
 20
15.5194
 30
0.0000
 11
53.1702
 21
15.0368
 31
0.0000
  0
LINE
  8
51
 10
53.6528
 20
14.5542
 30
0.0000
 11
54.3386
 21
15.2400
 31
0.0000
  0
LINE
  8
51
 10
54.3386
 20
15.2400
 30
0.0000
 11
59.5964
 21
15.2400
 31
0.0000
  0
LINE
  8
51
 10
59.5964
 20
15.2400
 30
0.0000
 11
60.2822
 21
14.5542
 31
0.0000
  0
LINE
  8
51
 10
60.2822
 20
14.5542
 30
0.0000
 11
59.9520
 21
14.2240
 31
0.0000
  0
LINE
  8
51
 10
59.9520
 20
14.2240
 30
0.0000
 11
53.9830
 21
14.2240
 31
0.0000
  0
LINE
  8
51
 10
53.9830
 20
14.2240
 30
0.0000
 11
53.6528
 21
14.5542
 31
0.0000
  0
LINE
  8
51
 10
61.6030
 20
21.0058
 30
0.0000
 11
60.7648
 21
20.1676
 31
0.0000
  0
LINE
  8
51
 10
60.7648
 20
20.1676
 30
0.0000
 11
60.0028
 21
15.7734
 31
0.0000
  0
LINE
  8
51
 10
60.0028
 20
15.7734
 30
0.0000
 11
60.7648
 21
15.0114
 31
0.0000
  0
LINE
  8
51
 10
60.7648
 20
15.0114
 30
0.0000
 11
60.9680
 21
15.2146
 31
0.0000
  0
LINE
  8
51
 10
60.9680
 20
15.2146
 30
0.0000
 11
61.8824
 21
20.7264
 31
0.0000
  0
LINE
  8
51
 10
61.8824
 20
20.7264
 30
0.0000
 11
61.6030
 21
21.0058
 31
0.0000
  0
POLYLINE
  8
21
 66
1
 10
0.0000
 20
0.0000
 30
0.0000
 40
0.2540
 41
0.2540
 70
0
  0
VERTEX
  8
21
 10
47.8870
 20
17.6538
 30
0.0000
  0
VERTEX
  8
21
 10
47.8870
 20
16.6370
 30
0.0000
  0
SEQEND
  8
0
  0
POLYLINE
  8
21
 66
1
 10
0.0000
 20
0.0000
 30
0.0000
 40
0.1270
 41
0.1270
 70
0
  0
VERTEX
  8
21
 10
47.8235
 20
16.6370
 30
0.0000
 42
1.0000
  0
VERTEX
  8
21
 10
47.9505
 20
16.6370
 30
0.0000
  0
SEQEND
  8
0
  0
POLYLINE
  8
21
 66
1
 10
0.0000
 20
0.0000
 30
0.0000
 40
0.1270
 41
0.1270
 70
0
  0
VERTEX
  8
21
 10
47.9505
 20
17.6538
 30
0.0000
 42
1.0000
  0
VERTEX
  8
21
 10
47.8235
 20
17.6538
 30
0.0000
  0
SEQEND
  8
0
  0
POLYLINE
  8
21
 66
1
 10
0.0000
 20
0.0000
 30
0.0000
 40
0.2540
 41
0.2540
 70
0
  0
VERTEX
  8
21
 10
47.8870
 20
16.6370
 30
0.0000
  0
VERTEX
  8
21
 10
48.3954
 20
16.6370
 30
0.0000
  0
SEQEND
  8
0
  0
POLYLINE
  8
21
 66
1
 10
0.0000
 20
0.0000
 30
0.0000
 40
0.1270
 41
0.1270
 70
0
  0
VERTEX
  8
21
 10
48.3954
 20
16.5735
 30
0.0000
 42
1.0000
  0
VERTEX
  8
21
 10
48.3954
 20
16.7005
 30
0.0000
  0
SEQEND
  8
0
  0
POLYLINE
  8
21
 66
1
 10
0.0000
 20
0.0000
 30
0.0000
 40
0.1270
 41
0.1270
 70
0
  0
VERTEX
  8
21
 10
47.8870
 20
16.7005
 30
0.0000
 42
1.0000
  0
VERTEX
  8
21
 10
47.8870
 20
16.5735
 30
0.0000
  0
SEQEND
  8
0
  0
POLYLINE
  8
21
 66
1
 10
0.0000
 20
0.0000
 30
0.0000
 40
0.2540
 41
0.2540
 70
0
  0
VERTEX
  8
21
 10
48.3954
 20
16.6370
 30
0.0000
  0
VERTEX
  8
21
 10
48.5649
 20
16.8064
 30
0.0000
  0
SEQEND
  8
0
  0
POLYLINE
  8
21
 66
1
 10
0.0000
 20
0.0000
 30
0.0000
 40
0.1270
 41
0.1270
 70
0
  0
VERTEX
  8
21
 10
48.6098
 20
16.7615
 30
0.0000
 42
1.0000
  0
VERTEX
  8
21
 10
48.5200
 20
16.8513
 30
0.0000
  0
SEQEND
  8
0
  0
POLYLINE
  8
21
 66
1
 10
0.0000
 20
0.0000
 30
0.0000
 40
0.1270
 41
0.1270
 70
0
  0
VERTEX
  8
21
 10
48.3505
 20
16.6819
 30
0.0000
 42
1.0000
  0
VERTEX
  8
21
 10
48.4403
 20
16.5921
 30
0.0000
  0
SEQEND
  8
0
  0
POLYLINE
  8
21
 66
1
 10
0.0000
 20
0.0000
 30
0.0000
 40
0.2540
 41
0.2540
 70
0
  0
VERTEX
  8
21
 10
48.5649
 20
16.8064
 30
0.0000
  0
VERTEX
  8
21
 10
48.5649
 20
17.4843
 30
0.0000
  0
SEQEND
  8
0
  0
POLYLINE
  8
21
 66
1
 10
0.0000
 20
0.0000
 30
0.0000
 40
0.1270
 41
0.1270
 70
0
  0
VERTEX
  8
21
 10
48.6284
 20
17.4843
 30
0.0000
 42
1.0000
  0
VERTEX
  8
21
 10
48.5014
 20
17.4843
 30
0.0000
  0
SEQEND
  8
0
  0
POLYLINE
  8
21
 66
1
 10
0.0000
 20
0.0000
 30
0.0000
 40
0.1270
 41
0.1270
 70
0
  0
VERTEX
  8
21
 10
48.5014
 20
16.8064
 30
0.0000
 42
1.0000
  0
VERTEX
  8
21
 10
48.6284
 20
16.8064
 30
0.0000
  0
SEQEND
  8
0
  0
POLYLINE
  8
21
 66
1
 10
0.0000
 20
0.0000
 30
0.0000
 40
0.2540
 41
0.2540
 70
0
  0
VERTEX
  8
21
 10
48.5649
 20
17.4843
 30
0.0000
  0
VERTEX
  8
21
 10
48.3954
 20
17.6538
 30
0.0000
  0
SEQEND
  8
0
  0
POLYLINE
  8
21
 66
1
 10
0.0000
 20
0.0000
 30
0.0000
 40
0.1270
 41
0.1270
 70
0
  0
VERTEX
  8
21
 10
48.4403
 20
17.6987
 30
0.0000
 42
1.0000
  0
VERTEX
  8
21
 10
48.3505
 20
17.6089
 30
0.0000
  0
SEQEND
  8
0
  0
POLYLINE
  8
21
 66
1
 10
0.0000
 20
0.0000
 30
0.0000
 40
0.1270
 41
0.1270
 70
0
  0
VERTEX
  8
21
 10
48.5200
 20
17.4394
 30
0.0000
 42
1.0000
  0
VERTEX
  8
21
 10
48.6098
 20
17.5292
 30
0.0000
  0
SEQEND
  8
0
  0
POLYLINE
  8
21
 66
1
 10
0.0000
 20
0.0000
 30
0.0000
 40
0.2540
 41
0.2540
 70
0
  0
VERTEX
  8
21
 10
48.3954
 20
17.6538
 30
0.0000
  0
VERTEX
  8
21
 10
47.8870
 20
17.6538
 30
0.0000
  0
SEQEND
  8
0
  0
POLYLINE
  8
21
 66
1
 10
0.0000
 20
0.0000
 30
0.0000
 40
0.1270
 41
0.1270
 70
0
  0
VERTEX
  8
21
 10
47.8870
 20
17.7173
 30
0.0000
 42
1.0000
  0
VERTEX
  8
21
 10
47.8870
 20
17.5903
 30
0.0000
  0
SEQEND
  8
0
  0
POLYLINE
  8
21
 66
1
 10
0.0000
 20
0.0000
 30
0.0000
 40
0.1270
 41
0.1270
 70
0
  0
VERTEX
  8
21
 10
48.3954
 20
17.5903
 30
0.0000
 42
1.0000
  0
VERTEX
  8
21
 10
48.3954
 20
17.7173
 30
0.0000
  0
SEQEND
  8
0
  0
POLYLINE
  8
21
 66
1
 10
0.0000
 20
0.0000
 30
0.0000
 40
0.2540
 41
0.2540
 70
0
  0
VERTEX
  8
21
 10
49.0563
 20
16.6370
 30
0.0000
  0
VERTEX
  8
21
 10
49.0563
 20
17.6538
 30
0.0000
  0
SEQEND
  8
0
  0
POLYLINE
  8
21
 66
1
 10
0.0000
 20
0.0000
 30
0.0000
 40
0.1270
 41
0.1270
 70
0
  0
VERTEX
  8
21
 10
49.1198
 20
17.6538
 30
0.0000
 42
1.0000
  0
VERTEX
  8
21
 10
48.9928
 20
17.6538
 30
0.0000
  0
SEQEND
  8
0
  0
POLYLINE
  8
21
 66
1
 10
0.0000
 20
0.0000
 30
0.0000
 40
0.1270
 41
0.1270
 70
0
  0
VERTEX
  8
21
 10
48.9928
 20
16.6370
 30
0.0000
 42
1.0000
  0
VERTEX
  8
21
 10
49.1198
 20
16.6370
 30
0.0000
  0
SEQEND
  8
0
  0
POLYLINE
  8
21
 66
1
 10
0.0000
 20
0.0000
 30
0.0000
 40
0.2540
 41
0.2540
 70
0
  0
VERTEX
  8
21
 10
49.0563
 20
17.6538
 30
0.0000
  0
VERTEX
  8
21
 10
49.5647
 20
17.6538
 30
0.0000
  0
SEQEND
  8
0
  0
POLYLINE
  8
21
 66
1
 10
0.0000
 20
0.0000
 30
0.0000
 40
0.1270
 41
0.1270
 70
0
  0
VERTEX
  8
21
 10
49.5647
 20
17.5903
 30
0.0000
 42
1.0000
  0
VERTEX
  8
21
 10
49.5647
 20
17.7173
 30
0.0000
  0
SEQEND
  8
0
  0
POLYLINE
  8
21
 66
1
 10
0.0000
 20
0.0000
 30
0.0000
 40
0.1270
 41
0.1270
 70
0
  0
VERTEX
  8
21
 10
49.0563
 20
17.7173
 30
0.0000
 42
1.0000
  0
VERTEX
  8
21
 10
49.0563
 20
17.5903
 30
0.0000
  0
SEQEND
  8
0
  0
POLYLINE
  8
21
 66
1
 10
0.0000
 20
0.0000
 30
0.0000
 40
0.2540
 41
0.2540
 70
0
  0
VERTEX
  8
21
 10
49.5647
 20
17.6538
 30
0.0000
  0
VERTEX
  8
21
 10
49.7342
 20
17.4843
 30
0.0000
  0
SEQEND
  8
0
  0
POLYLINE
  8
21
 66
1
 10
0.0000
 20
0.0000
 30
0.0000
 40
0.1270
 41
0.1270
 70
0
  0
VERTEX
  8
21
 10
49.6893
 20
17.4394
 30
0.0000
 42
1.0000
  0
VERTEX
  8
21
 10
49.7791
 20
17.5292
 30
0.0000
  0
SEQEND
  8
0
  0
POLYLINE
  8
21
 66
1
 10
0.0000
 20
0.0000
 30
0.0000
 40
0.1270
 41
0.1270
 70
0
  0
VERTEX
  8
21
 10
49.6096
 20
17.6987
 30
0.0000
 42
1.0000
  0
VERTEX
  8
21
 10
49.5198
 20
17.6089
 30
0.0000
  0
SEQEND
  8
0
  0
POLYLINE
  8
21
 66
1
 10
0.0000
 20
0.0000
 30
0.0000
 40
0.2540
 41
0.2540
 70
0
  0
VERTEX
  8
21
 10
49.7342
 20
17.4843
 30
0.0000
  0
VERTEX
  8
21
 10
49.7342
 20
17.1454
 30
0.0000
  0
SEQEND
  8
0
  0
POLYLINE
  8
21
 66
1
 10
0.0000
 20
0.0000
 30
0.0000
 40
0.1270
 41
0.1270
 70
0
  0
VERTEX
  8
21
 10
49.6707
 20
17.1454
 30
0.0000
 42
1.0000
  0
VERTEX
  8
21
 10
49.7977
 20
17.1454
 30
0.0000
  0
SEQEND
  8
0
  0
POLYLINE
  8
21
 66
1
 10
0.0000
 20
0.0000
 30
0.0000
 40
0.1270
 41
0.1270
 70
0
  0
VERTEX
  8
21
 10
49.7977
 20
17.4843
 30
0.0000
 42
1.0000
  0
VERTEX
  8
21
 10
49.6707
 20
17.4843
 30
0.0000
  0
SEQEND
  8
0
  0
POLYLINE
  8
21
 66
1
 10
0.0000
 20
0.0000
 30
0.0000
 40
0.2540
 41
0.2540
 70
0
  0
VERTEX
  8
21
 10
49.7342
 20
17.1454
 30
0.0000
  0
VERTEX
  8
21
 10
49.5647
 20
16.9759
 30
0.0000
  0
SEQEND
  8
0
  0
POLYLINE
  8
21
 66
1
 10
0.0000
 20
0.0000
 30
0.0000
 40
0.1270
 41
0.1270
 70
0
  0
VERTEX
  8
21
 10
49.5198
 20
17.0208
 30
0.0000
 42
1.0000
  0
VERTEX
  8
21
 10
49.6096
 20
16.9310
 30
0.0000
  0
SEQEND
  8
0
  0
POLYLINE
  8
21
 66
1
 10
0.0000
 20
0.0000
 30
0.0000
 40
0.1270
 41
0.1270
 70
0
  0
VERTEX
  8
21
 10
49.7791
 20
17.1005
 30
0.0000
 42
1.0000
  0
VERTEX
  8
21
 10
49.6893
 20
17.1903
 30
0.0000
  0
SEQEND
  8
0
  0
POLYLINE
  8
21
 66
1
 10
0.0000
 20
0.0000
 30
0.0000
 40
0.2540
 41
0.2540
 70
0
  0
VERTEX
  8
21
 10
49.5647
 20
16.9759
 30
0.0000
  0
VERTEX
  8
21
 10
49.0563
 20
16.9759
 30
0.0000
  0
SEQEND
  8
0
  0
POLYLINE
  8
21
 66
1
 10
0.0000
 20
0.0000
 30
0.0000
 40
0.1270
 41
0.1270
 70
0
  0
VERTEX
  8
21
 10
49.0563
 20
17.0394
 30
0.0000
 42
1.0000
  0
VERTEX
  8
21
 10
49.0563
 20
16.9124
 30
0.0000
  0
SEQEND
  8
0
  0
POLYLINE
  8
21
 66
1
 10
0.0000
 20
0.0000
 30
0.0000
 40
0.1270
 41
0.1270
 70
0
  0
VERTEX
  8
21
 10
49.5647
 20
16.9124
 30
0.0000
 42
1.0000
  0
VERTEX
  8
21
 10
49.5647
 20
17.0394
 30
0.0000
  0
SEQEND
  8
0
  0
POLYLINE
  8
21
 66
1
 10
0.0000
 20
0.0000
 30
0.0000
 40
0.2540
 41
0.2540
 70
0
  0
VERTEX
  8
21
 10
60.5870
 20
17.6538
 30
0.0000
  0
VERTEX
  8
21
 10
60.5870
 20
16.6370
 30
0.0000
  0
SEQEND
  8
0
  0
POLYLINE
  8
21
 66
1
 10
0.0000
 20
0.0000
 30
0.0000
 40
0.1270
 41
0.1270
 70
0
  0
VERTEX
  8
21
 10
60.5235
 20
16.6370
 30
0.0000
 42
1.0000
  0
VERTEX
  8
21
 10
60.6505
 20
16.6370
 30
0.0000
  0
SEQEND
  8
0
  0
POLYLINE
  8
21
 66
1
 10
0.0000
 20
0.0000
 30
0.0000
 40
0.1270
 41
0.1270
 70
0
  0
VERTEX
  8
21
 10
60.6505
 20
17.6538
 30
0.0000
 42
1.0000
  0
VERTEX
  8
21
 10
60.5235
 20
17.6538
 30
0.0000
  0
SEQEND
  8
0
  0
POLYLINE
  8
21
 66
1
 10
0.0000
 20
0.0000
 30
0.0000
 40
0.2540
 41
0.2540
 70
0
  0
VERTEX
  8
21
 10
60.5870
 20
16.6370
 30
0.0000
  0
VERTEX
  8
21
 10
61.0954
 20
16.6370
 30
0.0000
  0
SEQEND
  8
0
  0
POLYLINE
  8
21
 66
1
 10
0.0000
 20
0.0000
 30
0.0000
 40
0.1270
 41
0.1270
 70
0
  0
VERTEX
  8
21
 10
61.0954
 20
16.5735
 30
0.0000
 42
1.0000
  0
VERTEX
  8
21
 10
61.0954
 20
16.7005
 30
0.0000
  0
SEQEND
  8
0
  0
POLYLINE
  8
21
 66
1
 10
0.0000
 20
0.0000
 30
0.0000
 40
0.1270
 41
0.1270
 70
0
  0
VERTEX
  8
21
 10
60.5870
 20
16.7005
 30
0.0000
 42
1.0000
  0
VERTEX
  8
21
 10
60.5870
 20
16.5735
 30
0.0000
  0
SEQEND
  8
0
  0
POLYLINE
  8
21
 66
1
 10
0.0000
 20
0.0000
 30
0.0000
 40
0.2540
 41
0.2540
 70
0
  0
VERTEX
  8
21
 10
61.0954
 20
16.6370
 30
0.0000
  0
VERTEX
  8
21
 10
61.2649
 20
16.8064
 30
0.0000
  0
SEQEND
  8
0
  0
POLYLINE
  8
21
 66
1
 10
0.0000
 20
0.0000
 30
0.0000
 40
0.1270
 41
0.1270
 70
0
  0
VERTEX
  8
21
 10
61.3098
 20
16.7615
 30
0.0000
 42
1.0000
  0
VERTEX
  8
21
 10
61.2200
 20
16.8513
 30
0.0000
  0
SEQEND
  8
0
  0
POLYLINE
  8
21
 66
1
 10
0.0000
 20
0.0000
 30
0.0000
 40
0.1270
 41
0.1270
 70
0
  0
VERTEX
  8
21
 10
61.0505
 20
16.6819
 30
0.0000
 42
1.0000
  0
VERTEX
  8
21
 10
61.1403
 20
16.5921
 30
0.0000
  0
SEQEND
  8
0
  0
POLYLINE
  8
21
 66
1
 10
0.0000
 20
0.0000
 30
0.0000
 40
0.2540
 41
0.2540
 70
0
  0
VERTEX
  8
21
 10
61.2649
 20
16.8064
 30
0.0000
  0
VERTEX
  8
21
 10
61.2649
 20
17.4843
 30
0.0000
  0
SEQEND
  8
0
  0
POLYLINE
  8
21
 66
1
 10
0.0000
 20
0.0000
 30
0.0000
 40
0.1270
 41
0.1270
 70
0
  0
VERTEX
  8
21
 10
61.3284
 20
17.4843
 30
0.0000
 42
1.0000
  0
VERTEX
  8
21
 10
61.2014
 20
17.4843
 30
0.0000
  0
SEQEND
  8
0
  0
POLYLINE
  8
21
 66
1
 10
0.0000
 20
0.0000
 30
0.0000
 40
0.1270
 41
0.1270
 70
0
  0
VERTEX
  8
21
 10
61.2014
 20
16.8064
 30
0.0000
 42
1.0000
  0
VERTEX
  8
21
 10
61.3284
 20
16.8064
 30
0.0000
  0
SEQEND
  8
0
  0
POLYLINE
  8
21
 66
1
 10
0.0000
 20
0.0000
 30
0.0000
 40
0.2540
 41
0.2540
 70
0
  0
VERTEX
  8
21
 10
61.2649
 20
17.4843
 30
0.0000
  0
VERTEX
  8
21
 10
61.0954
 20
17.6538
 30
0.0000
  0
SEQEND
  8
0
  0
POLYLINE
  8
21
 66
1
 10
0.0000
 20
0.0000
 30
0.0000
 40
0.1270
 41
0.1270
 70
0
  0
VERTEX
  8
21
 10
61.1403
 20
17.6987
 30
0.0000
 42
1.0000
  0
VERTEX
  8
21
 10
61.0505
 20
17.6089
 30
0.0000
  0
SEQEND
  8
0
  0
POLYLINE
  8
21
 66
1
 10
0.0000
 20
0.0000
 30
0.0000
 40
0.1270
 41
0.1270
 70
0
  0
VERTEX
  8
21
 10
61.2200
 20
17.4394
 30
0.0000
 42
1.0000
  0
VERTEX
  8
21
 10
61.3098
 20
17.5292
 30
0.0000
  0
SEQEND
  8
0
  0
POLYLINE
  8
21
 66
1
 10
0.0000
 20
0.0000
 30
0.0000
 40
0.2540
 41
0.2540
 70
0
  0
VERTEX
  8
21
 10
61.0954
 20
17.6538
 30
0.0000
  0
VERTEX
  8
21
 10
60.5870
 20
17.6538
 30
0.0000
  0
SEQEND
  8
0
  0
POLYLINE
  8
21
 66
1
 10
0.0000
 20
0.0000
 30
0.0000
 40
0.1270
 41
0.1270
 70
0
  0
VERTEX
  8
21
 10
60.5870
 20
17.7173
 30
0.0000
 42
1.0000
  0
VERTEX
  8
21
 10
60.5870
 20
17.5903
 30
0.0000
  0
SEQEND
  8
0
  0
POLYLINE
  8
21
 66
1
 10
0.0000
 20
0.0000
 30
0.0000
 40
0.1270
 41
0.1270
 70
0
  0
VERTEX
  8
21
 10
61.0954
 20
17.5903
 30
0.0000
 42
1.0000
  0
VERTEX
  8
21
 10
61.0954
 20
17.7173
 30
0.0000
  0
SEQEND
  8
0
  0
POLYLINE
  8
21
 66
1
 10
0.0000
 20
0.0000
 30
0.0000
 40
0.2540
 41
0.2540
 70
0
  0
VERTEX
  8
21
 10
61.7563
 20
16.6370
 30
0.0000
  0
VERTEX
  8
21
 10
61.7563
 20
17.6538
 30
0.0000
  0
SEQEND
  8
0
  0
POLYLINE
  8
21
 66
1
 10
0.0000
 20
0.0000
 30
0.0000
 40
0.1270
 41
0.1270
 70
0
  0
VERTEX
  8
21
 10
61.8198
 20
17.6538
 30
0.0000
 42
1.0000
  0
VERTEX
  8
21
 10
61.6928
 20
17.6538
 30
0.0000
  0
SEQEND
  8
0
  0
POLYLINE
  8
21
 66
1
 10
0.0000
 20
0.0000
 30
0.0000
 40
0.1270
 41
0.1270
 70
0
  0
VERTEX
  8
21
 10
61.6928
 20
16.6370
 30
0.0000
 42
1.0000
  0
VERTEX
  8
21
 10
61.8198
 20
16.6370
 30
0.0000
  0
SEQEND
  8
0
  0
POLYLINE
  8
21
 66
1
 10
0.0000
 20
0.0000
 30
0.0000
 40
0.2540
 41
0.2540
 70
0
  0
VERTEX
  8
21
 10
61.7563
 20
17.6538
 30
0.0000
  0
VERTEX
  8
21
 10
62.2647
 20
17.6538
 30
0.0000
  0
SEQEND
  8
0
  0
POLYLINE
  8
21
 66
1
 10
0.0000
 20
0.0000
 30
0.0000
 40
0.1270
 41
0.1270
 70
0
  0
VERTEX
  8
21
 10
62.2647
 20
17.5903
 30
0.0000
 42
1.0000
  0
VERTEX
  8
21
 10
62.2647
 20
17.7173
 30
0.0000
  0
SEQEND
  8
0
  0
POLYLINE
  8
21
 66
1
 10
0.0000
 20
0.0000
 30
0.0000
 40
0.1270
 41
0.1270
 70
0
  0
VERTEX
  8
21
 10
61.7563
 20
17.7173
 30
0.0000
 42
1.0000
  0
VERTEX
  8
21
 10
61.7563
 20
17.5903
 30
0.0000
  0
SEQEND
  8
0
  0
POLYLINE
  8
21
 66
1
 10
0.0000
 20
0.0000
 30
0.0000
 40
0.2540
 41
0.2540
 70
0
  0
VERTEX
  8
21
 10
62.2647
 20
17.6538
 30
0.0000
  0
VERTEX
  8
21
 10
62.4342
 20
17.4843
 30
0.0000
  0
SEQEND
  8
0
  0
POLYLINE
  8
21
 66
1
 10
0.0000
 20
0.0000
 30
0.0000
 40
0.1270
 41
0.1270
 70
0
  0
VERTEX
  8
21
 10
62.3893
 20
17.4394
 30
0.0000
 42
1.0000
  0
VERTEX
  8
21
 10
62.4791
 20
17.5292
 30
0.0000
  0
SEQEND
  8
0
  0
POLYLINE
  8
21
 66
1
 10
0.0000
 20
0.0000
 30
0.0000
 40
0.1270
 41
0.1270
 70
0
  0
VERTEX
  8
21
 10
62.3096
 20
17.6987
 30
0.0000
 42
1.0000
  0
VERTEX
  8
21
 10
62.2198
 20
17.6089
 30
0.0000
  0
SEQEND
  8
0
  0
POLYLINE
  8
21
 66
1
 10
0.0000
 20
0.0000
 30
0.0000
 40
0.2540
 41
0.2540
 70
0
  0
VERTEX
  8
21
 10
62.4342
 20
17.4843
 30
0.0000
  0
VERTEX
  8
21
 10
62.4342
 20
17.1454
 30
0.0000
  0
SEQEND
  8
0
  0
POLYLINE
  8
21
 66
1
 10
0.0000
 20
0.0000
 30
0.0000
 40
0.1270
 41
0.1270
 70
0
  0
VERTEX
  8
21
 10
62.3707
 20
17.1454
 30
0.0000
 42
1.0000
  0
VERTEX
  8
21
 10
62.4977
 20
17.1454
 30
0.0000
  0
SEQEND
  8
0
  0
POLYLINE
  8
21
 66
1
 10
0.0000
 20
0.0000
 30
0.0000
 40
0.1270
 41
0.1270
 70
0
  0
VERTEX
  8
21
 10
62.4977
 20
17.4843
 30
0.0000
 42
1.0000
  0
VERTEX
  8
21
 10
62.3707
 20
17.4843
 30
0.0000
  0
SEQEND
  8
0
  0
POLYLINE
  8
21
 66
1
 10
0.0000
 20
0.0000
 30
0.0000
 40
0.2540
 41
0.2540
 70
0
  0
VERTEX
  8
21
 10
62.4342
 20
17.1454
 30
0.0000
  0
VERTEX
  8
21
 10
62.2647
 20
16.9759
 30
0.0000
  0
SEQEND
  8
0
  0
POLYLINE
  8
21
 66
1
 10
0.0000
 20
0.0000
 30
0.0000
 40
0.1270
 41
0.1270
 70
0
  0
VERTEX
  8
21
 10
62.2198
 20
17.0208
 30
0.0000
 42
1.0000
  0
VERTEX
  8
21
 10
62.3096
 20
16.9310
 30
0.0000
  0
SEQEND
  8
0
  0
POLYLINE
  8
21
 66
1
 10
0.0000
 20
0.0000
 30
0.0000
 40
0.1270
 41
0.1270
 70
0
  0
VERTEX
  8
21
 10
62.4791
 20
17.1005
 30
0.0000
 42
1.0000
  0
VERTEX
  8
21
 10
62.3893
 20
17.1903
 30
0.0000
  0
SEQEND
  8
0
  0
POLYLINE
  8
21
 66
1
 10
0.0000
 20
0.0000
 30
0.0000
 40
0.2540
 41
0.2540
 70
0
  0
VERTEX
  8
21
 10
62.2647
 20
16.9759
 30
0.0000
  0
VERTEX
  8
21
 10
61.7563
 20
16.9759
 30
0.0000
  0
SEQEND
  8
0
  0
POLYLINE
  8
21
 66
1
 10
0.0000
 20
0.0000
 30
0.0000
 40
0.1270
 41
0.1270
 70
0
  0
VERTEX
  8
21
 10
61.7563
 20
17.0394
 30
0.0000
 42
1.0000
  0
VERTEX
  8
21
 10
61.7563
 20
16.9124
 30
0.0000
  0
SEQEND
  8
0
  0
POLYLINE
  8
21
 66
1
 10
0.0000
 20
0.0000
 30
0.0000
 40
0.1270
 41
0.1270
 70
0
  0
VERTEX
  8
21
 10
62.2647
 20
16.9124
 30
0.0000
 42
1.0000
  0
VERTEX
  8
21
 10
62.2647
 20
17.0394
 30
0.0000
  0
SEQEND
  8
0
  0
POLYLINE
  8
21
 66
1
 10
0.0000
 20
0.0000
 30
0.0000
 40
0.2540
 41
0.2540
 70
0
  0
VERTEX
  8
21
 10
49.6650
 20
14.6050
 30
0.0000
 42
1.0000
  0
VERTEX
  8
21
 10
49.6650
 20
15.8750
 30
0.0000
 42
1.0000
  0
VERTEX
  8
21
 10
49.6650
 20
14.6050
 30
0.0000
  0
SEQEND
  8
0
  0
POLYLINE
  8
21
 66
1
 10
0.0000
 20
0.0000
 30
0.0000
 40
0.2540
 41
0.2540
 70
0
  0
VERTEX
  8
21
 10
62.3650
 20
14.6050
 30
0.0000
 42
1.0000
  0
VERTEX
  8
21
 10
62.3650
 20
15.8750
 30
0.0000
 42
1.0000
  0
VERTEX
  8
21
 10
62.3650
 20
14.6050
 30
0.0000
  0
SEQEND
  8
0
  0
INSERT
  8
17
  2
ROUNDP
 10
41.4100
 20
13.9700
 30
0.0000
 41
1.4080
 42
1.4080
 43
1.0000
 50
90.0000
  0
INSERT
  8
17
  2
ROUNDP
 10
41.4100
 20
13.9700
 30
0.0000
 41
1.4080
 42
1.4080
 43
1.0000
 50
90.0000
  0
INSERT
  8
17
  2
ROUNDP
 10
43.9500
 20
13.9700
 30
0.0000
 41
1.4080
 42
1.4080
 43
1.0000
 50
90.0000
  0
INSERT
  8
17
  2
ROUNDP
 10
43.9500
 20
13.9700
 30
0.0000
 41
1.4080
 42
1.4080
 43
1.0000
 50
90.0000
  0
INSERT
  8
17
  2
ROUNDP
 10
46.4900
 20
13.9700
 30
0.0000
 41
1.4080
 42
1.4080
 43
1.0000
 50
90.0000
  0
INSERT
  8
17
  2
ROUNDP
 10
46.4900
 20
13.9700
 30
0.0000
 41
1.4080
 42
1.4080
 43
1.0000
 50
90.0000
  0
INSERT
  8
17
  2
ROUNDP
 10
49.0300
 20
13.9700
 30
0.0000
 41
1.4080
 42
1.4080
 43
1.0000
 50
90.0000
  0
INSERT
  8
17
  2
ROUNDP
 10
49.0300
 20
13.9700
 30
0.0000
 41
1.4080
 42
1.4080
 43
1.0000
 50
90.0000
  0
INSERT
  8
17
  2
ROUNDP
 10
51.5700
 20
13.9700
 30
0.0000
 41
1.4080
 42
1.4080
 43
1.0000
 50
90.0000
  0
INSERT
  8
17
  2
ROUNDP
 10
51.5700
 20
13.9700
 30
0.0000
 41
1.4080
 42
1.4080
 43
1.0000
 50
90.0000
  0
INSERT
  8
17
  2
ROUNDP
 10
54.1100
 20
13.9700
 30
0.0000
 41
1.4080
 42
1.4080
 43
1.0000
 50
90.0000
  0
INSERT
  8
17
  2
ROUNDP
 10
54.1100
 20
13.9700
 30
0.0000
 41
1.4080
 42
1.4080
 43
1.0000
 50
90.0000
  0
INSERT
  8
17
  2
ROUNDP
 10
56.6500
 20
13.9700
 30
0.0000
 41
1.4080
 42
1.4080
 43
1.0000
 50
90.0000
  0
INSERT
  8
17
  2
ROUNDP
 10
56.6500
 20
13.9700
 30
0.0000
 41
1.4080
 42
1.4080
 43
1.0000
 50
90.0000
  0
INSERT
  8
17
  2
ROUNDP
 10
59.1900
 20
13.9700
 30
0.0000
 41
1.4080
 42
1.4080
 43
1.0000
 50
90.0000
  0
INSERT
  8
17
  2
ROUNDP
 10
59.1900
 20
13.9700
 30
0.0000
 41
1.4080
 42
1.4080
 43
1.0000
 50
90.0000
  0
INSERT
  8
17
  2
ROUNDP
 10
61.7300
 20
13.9700
 30
0.0000
 41
1.4080
 42
1.4080
 43
1.0000
 50
90.0000
  0
INSERT
  8
17
  2
ROUNDP
 10
61.7300
 20
13.9700
 30
0.0000
 41
1.4080
 42
1.4080
 43
1.0000
 50
90.0000
  0
INSERT
  8
17
  2
ROUNDP
 10
61.7300
 20
29.2100
 30
0.0000
 41
1.4080
 42
1.4080
 43
1.0000
 50
90.0000
  0
INSERT
  8
17
  2
ROUNDP
 10
61.7300
 20
29.2100
 30
0.0000
 41
1.4080
 42
1.4080
 43
1.0000
 50
90.0000
  0
INSERT
  8
17
  2
ROUNDP
 10
59.1900
 20
29.2100
 30
0.0000
 41
1.4080
 42
1.4080
 43
1.0000
 50
90.0000
  0
INSERT
  8
17
  2
ROUNDP
 10
59.1900
 20
29.2100
 30
0.0000
 41
1.4080
 42
1.4080
 43
1.0000
 50
90.0000
  0
INSERT
  8
17
  2
ROUNDP
 10
56.6500
 20
29.2100
 30
0.0000
 41
1.4080
 42
1.4080
 43
1.0000
 50
90.0000
  0
INSERT
  8
17
  2
ROUNDP
 10
56.6500
 20
29.2100
 30
0.0000
 41
1.4080
 42
1.4080
 43
1.0000
 50
90.0000
  0
INSERT
  8
17
  2
ROUNDP
 10
54.1100
 20
29.2100
 30
0.0000
 41
1.4080
 42
1.4080
 43
1.0000
 50
90.0000
  0
INSERT
  8
17
  2
ROUNDP
 10
54.1100
 20
29.2100
 30
0.0000
 41
1.4080
 42
1.4080
 43
1.0000
 50
90.0000
  0
INSERT
  8
17
  2
ROUNDP
 10
51.5700
 20
29.2100
 30
0.0000
 41
1.4080
 42
1.4080
 43
1.0000
 50
90.0000
  0
INSERT
  8
17
  2
ROUNDP
 10
51.5700
 20
29.2100
 30
0.0000
 41
1.4080
 42
1.4080
 43
1.0000
 50
90.0000
  0
INSERT
  8
17
  2
ROUNDP
 10
49.0300
 20
29.2100
 30
0.0000
 41
1.4080
 42
1.4080
 43
1.0000
 50
90.0000
  0
INSERT
  8
17
  2
ROUNDP
 10
49.0300
 20
29.2100
 30
0.0000
 41
1.4080
 42
1.4080
 43
1.0000
 50
90.0000
  0
INSERT
  8
17
  2
ROUNDP
 10
46.4900
 20
29.2100
 30
0.0000
 41
1.4080
 42
1.4080
 43
1.0000
 50
90.0000
  0
INSERT
  8
17
  2
ROUNDP
 10
46.4900
 20
29.2100
 30
0.0000
 41
1.4080
 42
1.4080
 43
1.0000
 50
90.0000
  0
INSERT
  8
17
  2
ROUNDP
 10
43.9500
 20
29.2100
 30
0.0000
 41
1.4080
 42
1.4080
 43
1.0000
 50
90.0000
  0
INSERT
  8
17
  2
ROUNDP
 10
43.9500
 20
29.2100
 30
0.0000
 41
1.4080
 42
1.4080
 43
1.0000
 50
90.0000
  0
INSERT
  8
17
  2
ROUNDP
 10
41.4100
 20
29.2100
 30
0.0000
 41
1.4080
 42
1.4080
 43
1.0000
 50
90.0000
  0
INSERT
  8
17
  2
ROUNDP
 10
41.4100
 20
29.2100
 30
0.0000
 41
1.4080
 42
1.4080
 43
1.0000
 50
90.0000
  0
INSERT
  8
17
  2
ROUNDP
 10
52.8320
 20
3.1930
 30
0.0000
 41
3.8100
 42
3.8100
 43
1.0000
 50
90.0000
  0
INSERT
  8
17
  2
ROUNDP
 10
52.8320
 20
3.1930
 30
0.0000
 41
3.8100
 42
3.8100
 43
1.0000
 50
90.0000
  0
POLYLINE
  8
21
 66
1
 10
0.0000
 20
0.0000
 30
0.0000
 40
0.2540
 41
0.2540
 70
0
  0
VERTEX
  8
21
 10
26.5560
 20
5.7060
 30
0.0000
  0
VERTEX
  8
21
 10
26.5560
 20
3.8010
 30
0.0000
  0
SEQEND
  8
0
  0
POLYLINE
  8
21
 66
1
 10
0.0000
 20
0.0000
 30
0.0000
 40
0.1270
 41
0.1270
 70
0
  0
VERTEX
  8
21
 10
26.4925
 20
3.8010
 30
0.0000
 42
1.0000
  0
VERTEX
  8
21
 10
26.6195
 20
3.8010
 30
0.0000
  0
SEQEND
  8
0
  0
POLYLINE
  8
21
 66
1
 10
0.0000
 20
0.0000
 30
0.0000
 40
0.1270
 41
0.1270
 70
0
  0
VERTEX
  8
21
 10
26.6195
 20
5.7060
 30
0.0000
 42
1.0000
  0
VERTEX
  8
21
 10
26.4925
 20
5.7060
 30
0.0000
  0
SEQEND
  8
0
  0
POLYLINE
  8
21
 66
1
 10
0.0000
 20
0.0000
 30
0.0000
 40
0.2540
 41
0.2540
 70
0
  0
VERTEX
  8
21
 10
26.5560
 20
5.7060
 30
0.0000
 42
1.0000
  0
VERTEX
  8
21
 10
26.5560
 20
6.9760
 30
0.0000
  0
SEQEND
  8
0
  0
POLYLINE
  8
21
 66
1
 10
0.0000
 20
0.0000
 30
0.0000
 40
0.1270
 41
0.1270
 70
0
  0
VERTEX
  8
21
 10
26.5560
 20
5.7695
 30
0.0000
 42
1.0000
  0
VERTEX
  8
21
 10
26.5560
 20
5.6425
 30
0.0000
  0
SEQEND
  8
0
  0
POLYLINE
  8
21
 66
1
 10
0.0000
 20
0.0000
 30
0.0000
 40
0.1270
 41
0.1270
 70
0
  0
VERTEX
  8
21
 10
26.5560
 20
7.0395
 30
0.0000
 42
1.0000
  0
VERTEX
  8
21
 10
26.5560
 20
6.9125
 30
0.0000
  0
SEQEND
  8
0
  0
POLYLINE
  8
21
 66
1
 10
0.0000
 20
0.0000
 30
0.0000
 40
0.2540
 41
0.2540
 70
0
  0
VERTEX
  8
21
 10
49.4160
 20
3.8010
 30
0.0000
  0
VERTEX
  8
21
 10
26.5560
 20
3.8010
 30
0.0000
  0
SEQEND
  8
0
  0
POLYLINE
  8
21
 66
1
 10
0.0000
 20
0.0000
 30
0.0000
 40
0.1270
 41
0.1270
 70
0
  0
VERTEX
  8
21
 10
26.5560
 20
3.8645
 30
0.0000
 42
1.0000
  0
VERTEX
  8
21
 10
26.5560
 20
3.7375
 30
0.0000
  0
SEQEND
  8
0
  0
POLYLINE
  8
21
 66
1
 10
0.0000
 20
0.0000
 30
0.0000
 40
0.1270
 41
0.1270
 70
0
  0
VERTEX
  8
21
 10
49.4160
 20
3.7375
 30
0.0000
 42
1.0000
  0
VERTEX
  8
21
 10
49.4160
 20
3.8645
 30
0.0000
  0
SEQEND
  8
0
  0
POLYLINE
  8
21
 66
1
 10
0.0000
 20
0.0000
 30
0.0000
 40
0.2540
 41
0.2540
 70
0
  0
VERTEX
  8
21
 10
49.4160
 20
3.8010
 30
0.0000
  0
VERTEX
  8
21
 10
49.4160
 20
8.8810
 30
0.0000
  0
SEQEND
  8
0
  0
POLYLINE
  8
21
 66
1
 10
0.0000
 20
0.0000
 30
0.0000
 40
0.1270
 41
0.1270
 70
0
  0
VERTEX
  8
21
 10
49.4795
 20
8.8810
 30
0.0000
 42
1.0000
  0
VERTEX
  8
21
 10
49.3525
 20
8.8810
 30
0.0000
  0
SEQEND
  8
0
  0
POLYLINE
  8
21
 66
1
 10
0.0000
 20
0.0000
 30
0.0000
 40
0.1270
 41
0.1270
 70
0
  0
VERTEX
  8
21
 10
49.3525
 20
3.8010
 30
0.0000
 42
1.0000
  0
VERTEX
  8
21
 10
49.4795
 20
3.8010
 30
0.0000
  0
SEQEND
  8
0
  0
POLYLINE
  8
21
 66
1
 10
0.0000
 20
0.0000
 30
0.0000
 40
0.2540
 41
0.2540
 70
0
  0
VERTEX
  8
21
 10
26.5560
 20
8.8810
 30
0.0000
  0
VERTEX
  8
21
 10
49.4160
 20
8.8810
 30
0.0000
  0
SEQEND
  8
0
  0
POLYLINE
  8
21
 66
1
 10
0.0000
 20
0.0000
 30
0.0000
 40
0.1270
 41
0.1270
 70
0
  0
VERTEX
  8
21
 10
49.4160
 20
8.8175
 30
0.0000
 42
1.0000
  0
VERTEX
  8
21
 10
49.4160
 20
8.9445
 30
0.0000
  0
SEQEND
  8
0
  0
POLYLINE
  8
21
 66
1
 10
0.0000
 20
0.0000
 30
0.0000
 40
0.1270
 41
0.1270
 70
0
  0
VERTEX
  8
21
 10
26.5560
 20
8.9445
 30
0.0000
 42
1.0000
  0
VERTEX
  8
21
 10
26.5560
 20
8.8175
 30
0.0000
  0
SEQEND
  8
0
  0
POLYLINE
  8
21
 66
1
 10
0.0000
 20
0.0000
 30
0.0000
 40
0.2540
 41
0.2540
 70
0
  0
VERTEX
  8
21
 10
26.5560
 20
8.8810
 30
0.0000
  0
VERTEX
  8
21
 10
26.5560
 20
6.9760
 30
0.0000
  0
SEQEND
  8
0
  0
POLYLINE
  8
21
 66
1
 10
0.0000
 20
0.0000
 30
0.0000
 40
0.1270
 41
0.1270
 70
0
  0
VERTEX
  8
21
 10
26.4925
 20
6.9760
 30
0.0000
 42
1.0000
  0
VERTEX
  8
21
 10
26.6195
 20
6.9760
 30
0.0000
  0
SEQEND
  8
0
  0
POLYLINE
  8
21
 66
1
 10
0.0000
 20
0.0000
 30
0.0000
 40
0.1270
 41
0.1270
 70
0
  0
VERTEX
  8
21
 10
26.6195
 20
8.8810
 30
0.0000
 42
1.0000
  0
VERTEX
  8
21
 10
26.4925
 20
8.8810
 30
0.0000
  0
SEQEND
  8
0
  0
INSERT
  8
17
  2
ROUNDP
 10
27.8260
 20
2.5310
 30
0.0000
 41
1.4080
 42
1.4080
 43
1.0000
 50
90.0000
  0
INSERT
  8
17
  2
ROUNDP
 10
27.8260
 20
2.5310
 30
0.0000
 41
1.4080
 42
1.4080
 43
1.0000
 50
90.0000
  0
INSERT
  8
17
  2
ROUNDP
 10
30.3660
 20
2.5310
 30
0.0000
 41
1.4080
 42
1.4080
 43
1.0000
 50
90.0000
  0
INSERT
  8
17
  2
ROUNDP
 10
30.3660
 20
2.5310
 30
0.0000
 41
1.4080
 42
1.4080
 43
1.0000
 50
90.0000
  0
INSERT
  8
17
  2
ROUNDP
 10
32.9060
 20
2.5310
 30
0.0000
 41
1.4080
 42
1.4080
 43
1.0000
 50
90.0000
  0
INSERT
  8
17
  2
ROUNDP
 10
32.9060
 20
2.5310
 30
0.0000
 41
1.4080
 42
1.4080
 43
1.0000
 50
90.0000
  0
INSERT
  8
17
  2
ROUNDP
 10
35.4460
 20
2.5310
 30
0.0000
 41
1.4080
 42
1.4080
 43
1.0000
 50
90.0000
  0
INSERT
  8
17
  2
ROUNDP
 10
35.4460
 20
2.5310
 30
0.0000
 41
1.4080
 42
1.4080
 43
1.0000
 50
90.0000
  0
INSERT
  8
17
  2
ROUNDP
 10
37.9860
 20
2.5310
 30
0.0000
 41
1.4080
 42
1.4080
 43
1.0000
 50
90.0000
  0
INSERT
  8
17
  2
ROUNDP
 10
37.9860
 20
2.5310
 30
0.0000
 41
1.4080
 42
1.4080
 43
1.0000
 50
90.0000
  0
INSERT
  8
17
  2
ROUNDP
 10
40.5260
 20
2.5310
 30
0.0000
 41
1.4080
 42
1.4080
 43
1.0000
 50
90.0000
  0
INSERT
  8
17
  2
ROUNDP
 10
40.5260
 20
2.5310
 30
0.0000
 41
1.4080
 42
1.4080
 43
1.0000
 50
90.0000
  0
INSERT
  8
17
  2
ROUNDP
 10
43.0660
 20
2.5310
 30
0.0000
 41
1.4080
 42
1.4080
 43
1.0000
 50
90.0000
  0
INSERT
  8
17
  2
ROUNDP
 10
43.0660
 20
2.5310
 30
0.0000
 41
1.4080
 42
1.4080
 43
1.0000
 50
90.0000
  0
INSERT
  8
17
  2
ROUNDP
 10
45.6060
 20
2.5310
 30
0.0000
 41
1.4080
 42
1.4080
 43
1.0000
 50
90.0000
  0
INSERT
  8
17
  2
ROUNDP
 10
45.6060
 20
2.5310
 30
0.0000
 41
1.4080
 42
1.4080
 43
1.0000
 50
90.0000
  0
INSERT
  8
17
  2
ROUNDP
 10
48.1460
 20
2.5310
 30
0.0000
 41
1.4080
 42
1.4080
 43
1.0000
 50
90.0000
  0
INSERT
  8
17
  2
ROUNDP
 10
48.1460
 20
2.5310
 30
0.0000
 41
1.4080
 42
1.4080
 43
1.0000
 50
90.0000
  0
INSERT
  8
17
  2
ROUNDP
 10
48.1460
 20
10.1510
 30
0.0000
 41
1.4080
 42
1.4080
 43
1.0000
 50
90.0000
  0
INSERT
  8
17
  2
ROUNDP
 10
48.1460
 20
10.1510
 30
0.0000
 41
1.4080
 42
1.4080
 43
1.0000
 50
90.0000
  0
INSERT
  8
17
  2
ROUNDP
 10
45.6060
 20
10.1510
 30
0.0000
 41
1.4080
 42
1.4080
 43
1.0000
 50
90.0000
  0
INSERT
  8
17
  2
ROUNDP
 10
45.6060
 20
10.1510
 30
0.0000
 41
1.4080
 42
1.4080
 43
1.0000
 50
90.0000
  0
INSERT
  8
17
  2
ROUNDP
 10
43.0660
 20
10.1510
 30
0.0000
 41
1.4080
 42
1.4080
 43
1.0000
 50
90.0000
  0
INSERT
  8
17
  2
ROUNDP
 10
43.0660
 20
10.1510
 30
0.0000
 41
1.4080
 42
1.4080
 43
1.0000
 50
90.0000
  0
INSERT
  8
17
  2
ROUNDP
 10
40.5260
 20
10.1510
 30
0.0000
 41
1.4080
 42
1.4080
 43
1.0000
 50
90.0000
  0
INSERT
  8
17
  2
ROUNDP
 10
40.5260
 20
10.1510
 30
0.0000
 41
1.4080
 42
1.4080
 43
1.0000
 50
90.0000
  0
INSERT
  8
17
  2
ROUNDP
 10
37.9860
 20
10.1510
 30
0.0000
 41
1.4080
 42
1.4080
 43
1.0000
 50
90.0000
  0
INSERT
  8
17
  2
ROUNDP
 10
37.9860
 20
10.1510
 30
0.0000
 41
1.4080
 42
1.4080
 43
1.0000
 50
90.0000
  0
INSERT
  8
17
  2
ROUNDP
 10
35.4460
 20
10.1510
 30
0.0000
 41
1.4080
 42
1.4080
 43
1.0000
 50
90.0000
  0
INSERT
  8
17
  2
ROUNDP
 10
35.4460
 20
10.1510
 30
0.0000
 41
1.4080
 42
1.4080
 43
1.0000
 50
90.0000
  0
INSERT
  8
17
  2
ROUNDP
 10
32.9060
 20
10.1510
 30
0.0000
 41
1.4080
 42
1.4080
 43
1.0000
 50
90.0000
  0
INSERT
  8
17
  2
ROUNDP
 10
32.9060
 20
10.1510
 30
0.0000
 41
1.4080
 42
1.4080
 43
1.0000
 50
90.0000
  0
INSERT
  8
17
  2
ROUNDP
 10
30.3660
 20
10.1510
 30
0.0000
 41
1.4080
 42
1.4080
 43
1.0000
 50
90.0000
  0
INSERT
  8
17
  2
ROUNDP
 10
30.3660
 20
10.1510
 30
0.0000
 41
1.4080
 42
1.4080
 43
1.0000
 50
90.0000
  0
INSERT
  8
17
  2
ROUNDP
 10
27.8260
 20
10.1510
 30
0.0000
 41
1.4080
 42
1.4080
 43
1.0000
 50
90.0000
  0
INSERT
  8
17
  2
ROUNDP
 10
27.8260
 20
10.1510
 30
0.0000
 41
1.4080
 42
1.4080
 43
1.0000
 50
90.0000
  0
POLYLINE
  8
51
 66
1
 10
0.0000
 20
0.0000
 30
0.0000
 40
0.5080
 41
0.5080
 70
0
  0
VERTEX
  8
51
 10
17.5060
 20
2.9420
 30
0.0000
  0
VERTEX
  8
51
 10
18.0140
 20
2.9420
 30
0.0000
  0
SEQEND
  8
0
  0
POLYLINE
  8
51
 66
1
 10
0.0000
 20
0.0000
 30
0.0000
 40
0.2540
 41
0.2540
 70
0
  0
VERTEX
  8
51
 10
18.0140
 20
2.8150
 30
0.0000
 42
1.0000
  0
VERTEX
  8
51
 10
18.0140
 20
3.0690
 30
0.0000
  0
SEQEND
  8
0
  0
POLYLINE
  8
51
 66
1
 10
0.0000
 20
0.0000
 30
0.0000
 40
0.2540
 41
0.2540
 70
0
  0
VERTEX
  8
51
 10
17.5060
 20
3.0690
 30
0.0000
 42
1.0000
  0
VERTEX
  8
51
 10
17.5060
 20
2.8150
 30
0.0000
  0
SEQEND
  8
0
  0
POLYLINE
  8
51
 66
1
 10
0.0000
 20
0.0000
 30
0.0000
 40
0.5080
 41
0.5080
 70
0
  0
VERTEX
  8
51
 10
22.5860
 20
2.9420
 30
0.0000
  0
VERTEX
  8
51
 10
22.0780
 20
2.9420
 30
0.0000
  0
SEQEND
  8
0
  0
POLYLINE
  8
51
 66
1
 10
0.0000
 20
0.0000
 30
0.0000
 40
0.2540
 41
0.2540
 70
0
  0
VERTEX
  8
51
 10
22.0780
 20
3.0690
 30
0.0000
 42
1.0000
  0
VERTEX
  8
51
 10
22.0780
 20
2.8150
 30
0.0000
  0
SEQEND
  8
0
  0
POLYLINE
  8
51
 66
1
 10
0.0000
 20
0.0000
 30
0.0000
 40
0.2540
 41
0.2540
 70
0
  0
VERTEX
  8
51
 10
22.5860
 20
2.8150
 30
0.0000
 42
1.0000
  0
VERTEX
  8
51
 10
22.5860
 20
3.0690
 30
0.0000
  0
SEQEND
  8
0
  0
POLYLINE
  8
21
 66
1
 10
0.0000
 20
0.0000
 30
0.0000
 40
0.2540
 41
0.2540
 70
0
  0
VERTEX
  8
21
 10
21.5700
 20
2.0530
 30
0.0000
 42
0.4142
  0
VERTEX
  8
21
 10
21.8240
 20
2.3070
 30
0.0000
  0
SEQEND
  8
0
  0
POLYLINE
  8
21
 66
1
 10
0.0000
 20
0.0000
 30
0.0000
 40
0.1270
 41
0.1270
 70
0
  0
VERTEX
  8
21
 10
21.5700
 20
2.1165
 30
0.0000
 42
1.0000
  0
VERTEX
  8
21
 10
21.5700
 20
1.9895
 30
0.0000
  0
SEQEND
  8
0
  0
POLYLINE
  8
21
 66
1
 10
0.0000
 20
0.0000
 30
0.0000
 40
0.1270
 41
0.1270
 70
0
  0
VERTEX
  8
21
 10
21.8875
 20
2.3070
 30
0.0000
 42
1.0000
  0
VERTEX
  8
21
 10
21.7605
 20
2.3070
 30
0.0000
  0
SEQEND
  8
0
  0
POLYLINE
  8
21
 66
1
 10
0.0000
 20
0.0000
 30
0.0000
 40
0.2540
 41
0.2540
 70
0
  0
VERTEX
  8
21
 10
21.8240
 20
3.5770
 30
0.0000
 42
0.4142
  0
VERTEX
  8
21
 10
21.5700
 20
3.8310
 30
0.0000
  0
SEQEND
  8
0
  0
POLYLINE
  8
21
 66
1
 10
0.0000
 20
0.0000
 30
0.0000
 40
0.1270
 41
0.1270
 70
0
  0
VERTEX
  8
21
 10
21.7605
 20
3.5770
 30
0.0000
 42
1.0000
  0
VERTEX
  8
21
 10
21.8875
 20
3.5770
 30
0.0000
  0
SEQEND
  8
0
  0
POLYLINE
  8
21
 66
1
 10
0.0000
 20
0.0000
 30
0.0000
 40
0.1270
 41
0.1270
 70
0
  0
VERTEX
  8
21
 10
21.5700
 20
3.8945
 30
0.0000
 42
1.0000
  0
VERTEX
  8
21
 10
21.5700
 20
3.7675
 30
0.0000
  0
SEQEND
  8
0
  0
POLYLINE
  8
21
 66
1
 10
0.0000
 20
0.0000
 30
0.0000
 40
0.2540
 41
0.2540
 70
0
  0
VERTEX
  8
21
 10
18.5220
 20
3.8310
 30
0.0000
 42
0.4142
  0
VERTEX
  8
21
 10
18.2680
 20
3.5770
 30
0.0000
  0
SEQEND
  8
0
  0
POLYLINE
  8
21
 66
1
 10
0.0000
 20
0.0000
 30
0.0000
 40
0.1270
 41
0.1270
 70
0
  0
VERTEX
  8
21
 10
18.5220
 20
3.7675
 30
0.0000
 42
1.0000
  0
VERTEX
  8
21
 10
18.5220
 20
3.8945
 30
0.0000
  0
SEQEND
  8
0
  0
POLYLINE
  8
21
 66
1
 10
0.0000
 20
0.0000
 30
0.0000
 40
0.1270
 41
0.1270
 70
0
  0
VERTEX
  8
21
 10
18.2045
 20
3.5770
 30
0.0000
 42
1.0000
  0
VERTEX
  8
21
 10
18.3315
 20
3.5770
 30
0.0000
  0
SEQEND
  8
0
  0
POLYLINE
  8
21
 66
1
 10
0.0000
 20
0.0000
 30
0.0000
 40
0.2540
 41
0.2540
 70
0
  0
VERTEX
  8
21
 10
18.2680
 20
2.3070
 30
0.0000
 42
0.4142
  0
VERTEX
  8
21
 10
18.5220
 20
2.0530
 30
0.0000
  0
SEQEND
  8
0
  0
POLYLINE
  8
21
 66
1
 10
0.0000
 20
0.0000
 30
0.0000
 40
0.1270
 41
0.1270
 70
0
  0
VERTEX
  8
21
 10
18.3315
 20
2.3070
 30
0.0000
 42
1.0000
  0
VERTEX
  8
21
 10
18.2045
 20
2.3070
 30
0.0000
  0
SEQEND
  8
0
  0
POLYLINE
  8
21
 66
1
 10
0.0000
 20
0.0000
 30
0.0000
 40
0.1270
 41
0.1270
 70
0
  0
VERTEX
  8
21
 10
18.5220
 20
1.9895
 30
0.0000
 42
1.0000
  0
VERTEX
  8
21
 10
18.5220
 20
2.1165
 30
0.0000
  0
SEQEND
  8
0
  0
POLYLINE
  8
51
 66
1
 10
0.0000
 20
0.0000
 30
0.0000
 40
0.2540
 41
0.2540
 70
0
  0
VERTEX
  8
51
 10
21.8240
 20
3.5770
 30
0.0000
  0
VERTEX
  8
51
 10
21.8240
 20
2.3070
 30
0.0000
  0
SEQEND
  8
0
  0
POLYLINE
  8
51
 66
1
 10
0.0000
 20
0.0000
 30
0.0000
 40
0.1270
 41
0.1270
 70
0
  0
VERTEX
  8
51
 10
21.7605
 20
2.3070
 30
0.0000
 42
1.0000
  0
VERTEX
  8
51
 10
21.8875
 20
2.3070
 30
0.0000
  0
SEQEND
  8
0
  0
POLYLINE
  8
51
 66
1
 10
0.0000
 20
0.0000
 30
0.0000
 40
0.1270
 41
0.1270
 70
0
  0
VERTEX
  8
51
 10
21.8875
 20
3.5770
 30
0.0000
 42
1.0000
  0
VERTEX
  8
51
 10
21.7605
 20
3.5770
 30
0.0000
  0
SEQEND
  8
0
  0
POLYLINE
  8
21
 66
1
 10
0.0000
 20
0.0000
 30
0.0000
 40
0.2540
 41
0.2540
 70
0
  0
VERTEX
  8
21
 10
21.5700
 20
2.0530
 30
0.0000
  0
VERTEX
  8
21
 10
21.3160
 20
2.0530
 30
0.0000
  0
SEQEND
  8
0
  0
POLYLINE
  8
21
 66
1
 10
0.0000
 20
0.0000
 30
0.0000
 40
0.1270
 41
0.1270
 70
0
  0
VERTEX
  8
21
 10
21.3160
 20
2.1165
 30
0.0000
 42
1.0000
  0
VERTEX
  8
21
 10
21.3160
 20
1.9895
 30
0.0000
  0
SEQEND
  8
0
  0
POLYLINE
  8
21
 66
1
 10
0.0000
 20
0.0000
 30
0.0000
 40
0.1270
 41
0.1270
 70
0
  0
VERTEX
  8
21
 10
21.5700
 20
1.9895
 30
0.0000
 42
1.0000
  0
VERTEX
  8
21
 10
21.5700
 20
2.1165
 30
0.0000
  0
SEQEND
  8
0
  0
POLYLINE
  8
21
 66
1
 10
0.0000
 20
0.0000
 30
0.0000
 40
0.2540
 41
0.2540
 70
0
  0
VERTEX
  8
21
 10
21.1890
 20
2.1800
 30
0.0000
  0
VERTEX
  8
21
 10
21.3160
 20
2.0530
 30
0.0000
  0
SEQEND
  8
0
  0
POLYLINE
  8
21
 66
1
 10
0.0000
 20
0.0000
 30
0.0000
 40
0.1270
 41
0.1270
 70
0
  0
VERTEX
  8
21
 10
21.2711
 20
2.0081
 30
0.0000
 42
1.0000
  0
VERTEX
  8
21
 10
21.3609
 20
2.0979
 30
0.0000
  0
SEQEND
  8
0
  0
POLYLINE
  8
21
 66
1
 10
0.0000
 20
0.0000
 30
0.0000
 40
0.1270
 41
0.1270
 70
0
  0
VERTEX
  8
21
 10
21.2339
 20
2.2249
 30
0.0000
 42
1.0000
  0
VERTEX
  8
21
 10
21.1441
 20
2.1351
 30
0.0000
  0
SEQEND
  8
0
  0
POLYLINE
  8
21
 66
1
 10
0.0000
 20
0.0000
 30
0.0000
 40
0.2540
 41
0.2540
 70
0
  0
VERTEX
  8
21
 10
21.5700
 20
3.8310
 30
0.0000
  0
VERTEX
  8
21
 10
21.3160
 20
3.8310
 30
0.0000
  0
SEQEND
  8
0
  0
POLYLINE
  8
21
 66
1
 10
0.0000
 20
0.0000
 30
0.0000
 40
0.1270
 41
0.1270
 70
0
  0
VERTEX
  8
21
 10
21.3160
 20
3.8945
 30
0.0000
 42
1.0000
  0
VERTEX
  8
21
 10
21.3160
 20
3.7675
 30
0.0000
  0
SEQEND
  8
0
  0
POLYLINE
  8
21
 66
1
 10
0.0000
 20
0.0000
 30
0.0000
 40
0.1270
 41
0.1270
 70
0
  0
VERTEX
  8
21
 10
21.5700
 20
3.7675
 30
0.0000
 42
1.0000
  0
VERTEX
  8
21
 10
21.5700
 20
3.8945
 30
0.0000
  0
SEQEND
  8
0
  0
POLYLINE
  8
21
 66
1
 10
0.0000
 20
0.0000
 30
0.0000
 40
0.2540
 41
0.2540
 70
0
  0
VERTEX
  8
21
 10
21.1890
 20
3.7040
 30
0.0000
  0
VERTEX
  8
21
 10
21.3160
 20
3.8310
 30
0.0000
  0
SEQEND
  8
0
  0
POLYLINE
  8
21
 66
1
 10
0.0000
 20
0.0000
 30
0.0000
 40
0.1270
 41
0.1270
 70
0
  0
VERTEX
  8
21
 10
21.3609
 20
3.7861
 30
0.0000
 42
1.0000
  0
VERTEX
  8
21
 10
21.2711
 20
3.8759
 30
0.0000
  0
SEQEND
  8
0
  0
POLYLINE
  8
21
 66
1
 10
0.0000
 20
0.0000
 30
0.0000
 40
0.1270
 41
0.1270
 70
0
  0
VERTEX
  8
21
 10
21.1441
 20
3.7489
 30
0.0000
 42
1.0000
  0
VERTEX
  8
21
 10
21.2339
 20
3.6591
 30
0.0000
  0
SEQEND
  8
0
  0
POLYLINE
  8
21
 66
1
 10
0.0000
 20
0.0000
 30
0.0000
 40
0.2540
 41
0.2540
 70
0
  0
VERTEX
  8
21
 10
18.9030
 20
2.1800
 30
0.0000
  0
VERTEX
  8
21
 10
18.7760
 20
2.0530
 30
0.0000
  0
SEQEND
  8
0
  0
POLYLINE
  8
21
 66
1
 10
0.0000
 20
0.0000
 30
0.0000
 40
0.1270
 41
0.1270
 70
0
  0
VERTEX
  8
21
 10
18.7311
 20
2.0979
 30
0.0000
 42
1.0000
  0
VERTEX
  8
21
 10
18.8209
 20
2.0081
 30
0.0000
  0
SEQEND
  8
0
  0
POLYLINE
  8
21
 66
1
 10
0.0000
 20
0.0000
 30
0.0000
 40
0.1270
 41
0.1270
 70
0
  0
VERTEX
  8
21
 10
18.9479
 20
2.1351
 30
0.0000
 42
1.0000
  0
VERTEX
  8
21
 10
18.8581
 20
2.2249
 30
0.0000
  0
SEQEND
  8
0
  0
POLYLINE
  8
21
 66
1
 10
0.0000
 20
0.0000
 30
0.0000
 40
0.2540
 41
0.2540
 70
0
  0
VERTEX
  8
21
 10
18.9030
 20
2.1800
 30
0.0000
  0
VERTEX
  8
21
 10
21.1890
 20
2.1800
 30
0.0000
  0
SEQEND
  8
0
  0
POLYLINE
  8
21
 66
1
 10
0.0000
 20
0.0000
 30
0.0000
 40
0.1270
 41
0.1270
 70
0
  0
VERTEX
  8
21
 10
21.1890
 20
2.1165
 30
0.0000
 42
1.0000
  0
VERTEX
  8
21
 10
21.1890
 20
2.2435
 30
0.0000
  0
SEQEND
  8
0
  0
POLYLINE
  8
21
 66
1
 10
0.0000
 20
0.0000
 30
0.0000
 40
0.1270
 41
0.1270
 70
0
  0
VERTEX
  8
21
 10
18.9030
 20
2.2435
 30
0.0000
 42
1.0000
  0
VERTEX
  8
21
 10
18.9030
 20
2.1165
 30
0.0000
  0
SEQEND
  8
0
  0
POLYLINE
  8
21
 66
1
 10
0.0000
 20
0.0000
 30
0.0000
 40
0.2540
 41
0.2540
 70
0
  0
VERTEX
  8
21
 10
18.9030
 20
3.7040
 30
0.0000
  0
VERTEX
  8
21
 10
18.7760
 20
3.8310
 30
0.0000
  0
SEQEND
  8
0
  0
POLYLINE
  8
21
 66
1
 10
0.0000
 20
0.0000
 30
0.0000
 40
0.1270
 41
0.1270
 70
0
  0
VERTEX
  8
21
 10
18.8209
 20
3.8759
 30
0.0000
 42
1.0000
  0
VERTEX
  8
21
 10
18.7311
 20
3.7861
 30
0.0000
  0
SEQEND
  8
0
  0
POLYLINE
  8
21
 66
1
 10
0.0000
 20
0.0000
 30
0.0000
 40
0.1270
 41
0.1270
 70
0
  0
VERTEX
  8
21
 10
18.8581
 20
3.6591
 30
0.0000
 42
1.0000
  0
VERTEX
  8
21
 10
18.9479
 20
3.7489
 30
0.0000
  0
SEQEND
  8
0
  0
POLYLINE
  8
21
 66
1
 10
0.0000
 20
0.0000
 30
0.0000
 40
0.2540
 41
0.2540
 70
0
  0
VERTEX
  8
21
 10
18.9030
 20
3.7040
 30
0.0000
  0
VERTEX
  8
21
 10
21.1890
 20
3.7040
 30
0.0000
  0
SEQEND
  8
0
  0
POLYLINE
  8
21
 66
1
 10
0.0000
 20
0.0000
 30
0.0000
 40
0.1270
 41
0.1270
 70
0
  0
VERTEX
  8
21
 10
21.1890
 20
3.6405
 30
0.0000
 42
1.0000
  0
VERTEX
  8
21
 10
21.1890
 20
3.7675
 30
0.0000
  0
SEQEND
  8
0
  0
POLYLINE
  8
21
 66
1
 10
0.0000
 20
0.0000
 30
0.0000
 40
0.1270
 41
0.1270
 70
0
  0
VERTEX
  8
21
 10
18.9030
 20
3.7675
 30
0.0000
 42
1.0000
  0
VERTEX
  8
21
 10
18.9030
 20
3.6405
 30
0.0000
  0
SEQEND
  8
0
  0
POLYLINE
  8
21
 66
1
 10
0.0000
 20
0.0000
 30
0.0000
 40
0.2540
 41
0.2540
 70
0
  0
VERTEX
  8
21
 10
18.5220
 20
2.0530
 30
0.0000
  0
VERTEX
  8
21
 10
18.7760
 20
2.0530
 30
0.0000
  0
SEQEND
  8
0
  0
POLYLINE
  8
21
 66
1
 10
0.0000
 20
0.0000
 30
0.0000
 40
0.1270
 41
0.1270
 70
0
  0
VERTEX
  8
21
 10
18.7760
 20
1.9895
 30
0.0000
 42
1.0000
  0
VERTEX
  8
21
 10
18.7760
 20
2.1165
 30
0.0000
  0
SEQEND
  8
0
  0
POLYLINE
  8
21
 66
1
 10
0.0000
 20
0.0000
 30
0.0000
 40
0.1270
 41
0.1270
 70
0
  0
VERTEX
  8
21
 10
18.5220
 20
2.1165
 30
0.0000
 42
1.0000
  0
VERTEX
  8
21
 10
18.5220
 20
1.9895
 30
0.0000
  0
SEQEND
  8
0
  0
POLYLINE
  8
21
 66
1
 10
0.0000
 20
0.0000
 30
0.0000
 40
0.2540
 41
0.2540
 70
0
  0
VERTEX
  8
21
 10
18.5220
 20
3.8310
 30
0.0000
  0
VERTEX
  8
21
 10
18.7760
 20
3.8310
 30
0.0000
  0
SEQEND
  8
0
  0
POLYLINE
  8
21
 66
1
 10
0.0000
 20
0.0000
 30
0.0000
 40
0.1270
 41
0.1270
 70
0
  0
VERTEX
  8
21
 10
18.7760
 20
3.7675
 30
0.0000
 42
1.0000
  0
VERTEX
  8
21
 10
18.7760
 20
3.8945
 30
0.0000
  0
SEQEND
  8
0
  0
POLYLINE
  8
21
 66
1
 10
0.0000
 20
0.0000
 30
0.0000
 40
0.1270
 41
0.1270
 70
0
  0
VERTEX
  8
21
 10
18.5220
 20
3.8945
 30
0.0000
 42
1.0000
  0
VERTEX
  8
21
 10
18.5220
 20
3.7675
 30
0.0000
  0
SEQEND
  8
0
  0
POLYLINE
  8
51
 66
1
 10
0.0000
 20
0.0000
 30
0.0000
 40
0.2540
 41
0.2540
 70
0
  0
VERTEX
  8
51
 10
18.2680
 20
3.5770
 30
0.0000
  0
VERTEX
  8
51
 10
18.2680
 20
2.3070
 30
0.0000
  0
SEQEND
  8
0
  0
POLYLINE
  8
51
 66
1
 10
0.0000
 20
0.0000
 30
0.0000
 40
0.1270
 41
0.1270
 70
0
  0
VERTEX
  8
51
 10
18.2045
 20
2.3070
 30
0.0000
 42
1.0000
  0
VERTEX
  8
51
 10
18.3315
 20
2.3070
 30
0.0000
  0
SEQEND
  8
0
  0
POLYLINE
  8
51
 66
1
 10
0.0000
 20
0.0000
 30
0.0000
 40
0.1270
 41
0.1270
 70
0
  0
VERTEX
  8
51
 10
18.3315
 20
3.5770
 30
0.0000
 42
1.0000
  0
VERTEX
  8
51
 10
18.2045
 20
3.5770
 30
0.0000
  0
SEQEND
  8
0
  0
INSERT
  8
51
  2
RECT
 10
21.9510
 20
2.9420
 30
0.0000
 41
0.2540
 42
0.5080
 43
1.0000
 50
180.0000
  0
INSERT
  8
51
  2
RECT
 10
18.1410
 20
2.9420
 30
0.0000
 41
0.2540
 42
0.5080
 43
1.0000
 50
180.0000
  0
INSERT
  8
17
  2
ROUNDP
 10
22.5860
 20
2.9420
 30
0.0000
 41
1.4080
 42
1.4080
 43
1.0000
 50
180.0000
  0
INSERT
  8
17
  2
ROUNDP
 10
22.5860
 20
2.9420
 30
0.0000
 41
1.4080
 42
1.4080
 43
1.0000
 50
180.0000
  0
INSERT
  8
17
  2
ROUNDP
 10
17.5060
 20
2.9420
 30
0.0000
 41
1.4080
 42
1.4080
 43
1.0000
 50
180.0000
  0
INSERT
  8
17
  2
ROUNDP
 10
17.5060
 20
2.9420
 30
0.0000
 41
1.4080
 42
1.4080
 43
1.0000
 50
180.0000
  0
POLYLINE
  8
21
 66
1
 10
0.0000
 20
0.0000
 30
0.0000
 40
0.2540
 41
0.2540
 70
0
  0
VERTEX
  8
21
 10
33.8480
 20
37.2060
 30
0.0000
  0
VERTEX
  8
21
 10
53.1520
 20
37.2060
 30
0.0000
  0
SEQEND
  8
0
  0
POLYLINE
  8
21
 66
1
 10
0.0000
 20
0.0000
 30
0.0000
 40
0.1270
 41
0.1270
 70
0
  0
VERTEX
  8
21
 10
53.1520
 20
37.1425
 30
0.0000
 42
1.0000
  0
VERTEX
  8
21
 10
53.1520
 20
37.2695
 30
0.0000
  0
SEQEND
  8
0
  0
POLYLINE
  8
21
 66
1
 10
0.0000
 20
0.0000
 30
0.0000
 40
0.1270
 41
0.1270
 70
0
  0
VERTEX
  8
21
 10
33.8480
 20
37.2695
 30
0.0000
 42
1.0000
  0
VERTEX
  8
21
 10
33.8480
 20
37.1425
 30
0.0000
  0
SEQEND
  8
0
  0
POLYLINE
  8
21
 66
1
 10
0.0000
 20
0.0000
 30
0.0000
 40
0.2540
 41
0.2540
 70
0
  0
VERTEX
  8
21
 10
53.1520
 20
39.2380
 30
0.0000
  0
VERTEX
  8
21
 10
33.8480
 20
39.2380
 30
0.0000
  0
SEQEND
  8
0
  0
POLYLINE
  8
21
 66
1
 10
0.0000
 20
0.0000
 30
0.0000
 40
0.1270
 41
0.1270
 70
0
  0
VERTEX
  8
21
 10
33.8480
 20
39.3015
 30
0.0000
 42
1.0000
  0
VERTEX
  8
21
 10
33.8480
 20
39.1745
 30
0.0000
  0
SEQEND
  8
0
  0
POLYLINE
  8
21
 66
1
 10
0.0000
 20
0.0000
 30
0.0000
 40
0.1270
 41
0.1270
 70
0
  0
VERTEX
  8
21
 10
53.1520
 20
39.1745
 30
0.0000
 42
1.0000
  0
VERTEX
  8
21
 10
53.1520
 20
39.3015
 30
0.0000
  0
SEQEND
  8
0
  0
POLYLINE
  8
21
 66
1
 10
0.0000
 20
0.0000
 30
0.0000
 40
0.2540
 41
0.2540
 70
0
  0
VERTEX
  8
21
 10
33.8480
 20
39.2380
 30
0.0000
 42
0.4142
  0
VERTEX
  8
21
 10
33.3400
 20
38.7300
 30
0.0000
  0
SEQEND
  8
0
  0
POLYLINE
  8
21
 66
1
 10
0.0000
 20
0.0000
 30
0.0000
 40
0.1270
 41
0.1270
 70
0
  0
VERTEX
  8
21
 10
33.8480
 20
39.1745
 30
0.0000
 42
1.0000
  0
VERTEX
  8
21
 10
33.8480
 20
39.3015
 30
0.0000
  0
SEQEND
  8
0
  0
POLYLINE
  8
21
 66
1
 10
0.0000
 20
0.0000
 30
0.0000
 40
0.1270
 41
0.1270
 70
0
  0
VERTEX
  8
21
 10
33.2765
 20
38.7300
 30
0.0000
 42
1.0000
  0
VERTEX
  8
21
 10
33.4035
 20
38.7300
 30
0.0000
  0
SEQEND
  8
0
  0
POLYLINE
  8
21
 66
1
 10
0.0000
 20
0.0000
 30
0.0000
 40
0.2540
 41
0.2540
 70
0
  0
VERTEX
  8
21
 10
53.1520
 20
37.2060
 30
0.0000
 42
0.4142
  0
VERTEX
  8
21
 10
53.6600
 20
37.7140
 30
0.0000
  0
SEQEND
  8
0
  0
POLYLINE
  8
21
 66
1
 10
0.0000
 20
0.0000
 30
0.0000
 40
0.1270
 41
0.1270
 70
0
  0
VERTEX
  8
21
 10
53.1520
 20
37.2695
 30
0.0000
 42
1.0000
  0
VERTEX
  8
21
 10
53.1520
 20
37.1425
 30
0.0000
  0
SEQEND
  8
0
  0
POLYLINE
  8
21
 66
1
 10
0.0000
 20
0.0000
 30
0.0000
 40
0.1270
 41
0.1270
 70
0
  0
VERTEX
  8
21
 10
53.7235
 20
37.7140
 30
0.0000
 42
1.0000
  0
VERTEX
  8
21
 10
53.5965
 20
37.7140
 30
0.0000
  0
SEQEND
  8
0
  0
POLYLINE
  8
21
 66
1
 10
0.0000
 20
0.0000
 30
0.0000
 40
0.2540
 41
0.2540
 70
0
  0
VERTEX
  8
21
 10
53.6600
 20
38.7300
 30
0.0000
 42
0.4142
  0
VERTEX
  8
21
 10
53.1520
 20
39.2380
 30
0.0000
  0
SEQEND
  8
0
  0
POLYLINE
  8
21
 66
1
 10
0.0000
 20
0.0000
 30
0.0000
 40
0.1270
 41
0.1270
 70
0
  0
VERTEX
  8
21
 10
53.5965
 20
38.7300
 30
0.0000
 42
1.0000
  0
VERTEX
  8
21
 10
53.7235
 20
38.7300
 30
0.0000
  0
SEQEND
  8
0
  0
POLYLINE
  8
21
 66
1
 10
0.0000
 20
0.0000
 30
0.0000
 40
0.1270
 41
0.1270
 70
0
  0
VERTEX
  8
21
 10
53.1520
 20
39.3015
 30
0.0000
 42
1.0000
  0
VERTEX
  8
21
 10
53.1520
 20
39.1745
 30
0.0000
  0
SEQEND
  8
0
  0
POLYLINE
  8
21
 66
1
 10
0.0000
 20
0.0000
 30
0.0000
 40
0.2540
 41
0.2540
 70
0
  0
VERTEX
  8
21
 10
33.3400
 20
37.7140
 30
0.0000
 42
0.4142
  0
VERTEX
  8
21
 10
33.8480
 20
37.2060
 30
0.0000
  0
SEQEND
  8
0
  0
POLYLINE
  8
21
 66
1
 10
0.0000
 20
0.0000
 30
0.0000
 40
0.1270
 41
0.1270
 70
0
  0
VERTEX
  8
21
 10
33.4035
 20
37.7140
 30
0.0000
 42
1.0000
  0
VERTEX
  8
21
 10
33.2765
 20
37.7140
 30
0.0000
  0
SEQEND
  8
0
  0
POLYLINE
  8
21
 66
1
 10
0.0000
 20
0.0000
 30
0.0000
 40
0.1270
 41
0.1270
 70
0
  0
VERTEX
  8
21
 10
33.8480
 20
37.1425
 30
0.0000
 42
1.0000
  0
VERTEX
  8
21
 10
33.8480
 20
37.2695
 30
0.0000
  0
SEQEND
  8
0
  0
POLYLINE
  8
21
 66
1
 10
0.0000
 20
0.0000
 30
0.0000
 40
0.2540
 41
0.2540
 70
0
  0
VERTEX
  8
21
 10
53.6600
 20
38.7300
 30
0.0000
  0
VERTEX
  8
21
 10
53.6600
 20
37.7140
 30
0.0000
  0
SEQEND
  8
0
  0
POLYLINE
  8
21
 66
1
 10
0.0000
 20
0.0000
 30
0.0000
 40
0.1270
 41
0.1270
 70
0
  0
VERTEX
  8
21
 10
53.5965
 20
37.7140
 30
0.0000
 42
1.0000
  0
VERTEX
  8
21
 10
53.7235
 20
37.7140
 30
0.0000
  0
SEQEND
  8
0
  0
POLYLINE
  8
21
 66
1
 10
0.0000
 20
0.0000
 30
0.0000
 40
0.1270
 41
0.1270
 70
0
  0
VERTEX
  8
21
 10
53.7235
 20
38.7300
 30
0.0000
 42
1.0000
  0
VERTEX
  8
21
 10
53.5965
 20
38.7300
 30
0.0000
  0
SEQEND
  8
0
  0
POLYLINE
  8
21
 66
1
 10
0.0000
 20
0.0000
 30
0.0000
 40
0.2540
 41
0.2540
 70
0
  0
VERTEX
  8
21
 10
33.3400
 20
38.7300
 30
0.0000
  0
VERTEX
  8
21
 10
33.3400
 20
37.7140
 30
0.0000
  0
SEQEND
  8
0
  0
POLYLINE
  8
21
 66
1
 10
0.0000
 20
0.0000
 30
0.0000
 40
0.1270
 41
0.1270
 70
0
  0
VERTEX
  8
21
 10
33.2765
 20
37.7140
 30
0.0000
 42
1.0000
  0
VERTEX
  8
21
 10
33.4035
 20
37.7140
 30
0.0000
  0
SEQEND
  8
0
  0
POLYLINE
  8
21
 66
1
 10
0.0000
 20
0.0000
 30
0.0000
 40
0.1270
 41
0.1270
 70
0
  0
VERTEX
  8
21
 10
33.4035
 20
38.7300
 30
0.0000
 42
1.0000
  0
VERTEX
  8
21
 10
33.2765
 20
38.7300
 30
0.0000
  0
SEQEND
  8
0
  0
POLYLINE
  8
51
 66
1
 10
0.0000
 20
0.0000
 30
0.0000
 40
0.2540
 41
0.2540
 70
0
  0
VERTEX
  8
51
 10
41.7220
 20
38.2220
 30
0.0000
  0
VERTEX
  8
51
 10
42.3570
 20
38.2220
 30
0.0000
  0
SEQEND
  8
0
  0
POLYLINE
  8
51
 66
1
 10
0.0000
 20
0.0000
 30
0.0000
 40
0.1270
 41
0.1270
 70
0
  0
VERTEX
  8
51
 10
42.3570
 20
38.1585
 30
0.0000
 42
1.0000
  0
VERTEX
  8
51
 10
42.3570
 20
38.2855
 30
0.0000
  0
SEQEND
  8
0
  0
POLYLINE
  8
51
 66
1
 10
0.0000
 20
0.0000
 30
0.0000
 40
0.1270
 41
0.1270
 70
0
  0
VERTEX
  8
51
 10
41.7220
 20
38.2855
 30
0.0000
 42
1.0000
  0
VERTEX
  8
51
 10
41.7220
 20
38.1585
 30
0.0000
  0
SEQEND
  8
0
  0
POLYLINE
  8
51
 66
1
 10
0.0000
 20
0.0000
 30
0.0000
 40
0.2540
 41
0.2540
 70
0
  0
VERTEX
  8
51
 10
45.2780
 20
38.2220
 30
0.0000
  0
VERTEX
  8
51
 10
44.6430
 20
38.2220
 30
0.0000
  0
SEQEND
  8
0
  0
POLYLINE
  8
51
 66
1
 10
0.0000
 20
0.0000
 30
0.0000
 40
0.1270
 41
0.1270
 70
0
  0
VERTEX
  8
51
 10
44.6430
 20
38.2855
 30
0.0000
 42
1.0000
  0
VERTEX
  8
51
 10
44.6430
 20
38.1585
 30
0.0000
  0
SEQEND
  8
0
  0
POLYLINE
  8
51
 66
1
 10
0.0000
 20
0.0000
 30
0.0000
 40
0.1270
 41
0.1270
 70
0
  0
VERTEX
  8
51
 10
45.2780
 20
38.1585
 30
0.0000
 42
1.0000
  0
VERTEX
  8
51
 10
45.2780
 20
38.2855
 30
0.0000
  0
SEQEND
  8
0
  0
POLYLINE
  8
51
 66
1
 10
0.0000
 20
0.0000
 30
0.0000
 40
0.2540
 41
0.2540
 70
0
  0
VERTEX
  8
51
 10
42.3570
 20
38.6030
 30
0.0000
  0
VERTEX
  8
51
 10
44.6430
 20
38.6030
 30
0.0000
  0
SEQEND
  8
0
  0
POLYLINE
  8
51
 66
1
 10
0.0000
 20
0.0000
 30
0.0000
 40
0.1270
 41
0.1270
 70
0
  0
VERTEX
  8
51
 10
44.6430
 20
38.5395
 30
0.0000
 42
1.0000
  0
VERTEX
  8
51
 10
44.6430
 20
38.6665
 30
0.0000
  0
SEQEND
  8
0
  0
POLYLINE
  8
51
 66
1
 10
0.0000
 20
0.0000
 30
0.0000
 40
0.1270
 41
0.1270
 70
0
  0
VERTEX
  8
51
 10
42.3570
 20
38.6665
 30
0.0000
 42
1.0000
  0
VERTEX
  8
51
 10
42.3570
 20
38.5395
 30
0.0000
  0
SEQEND
  8
0
  0
POLYLINE
  8
51
 66
1
 10
0.0000
 20
0.0000
 30
0.0000
 40
0.2540
 41
0.2540
 70
0
  0
VERTEX
  8
51
 10
44.6430
 20
38.6030
 30
0.0000
  0
VERTEX
  8
51
 10
44.6430
 20
38.2220
 30
0.0000
  0
SEQEND
  8
0
  0
POLYLINE
  8
51
 66
1
 10
0.0000
 20
0.0000
 30
0.0000
 40
0.1270
 41
0.1270
 70
0
  0
VERTEX
  8
51
 10
44.5795
 20
38.2220
 30
0.0000
 42
1.0000
  0
VERTEX
  8
51
 10
44.7065
 20
38.2220
 30
0.0000
  0
SEQEND
  8
0
  0
POLYLINE
  8
51
 66
1
 10
0.0000
 20
0.0000
 30
0.0000
 40
0.1270
 41
0.1270
 70
0
  0
VERTEX
  8
51
 10
44.7065
 20
38.6030
 30
0.0000
 42
1.0000
  0
VERTEX
  8
51
 10
44.5795
 20
38.6030
 30
0.0000
  0
SEQEND
  8
0
  0
POLYLINE
  8
51
 66
1
 10
0.0000
 20
0.0000
 30
0.0000
 40
0.2540
 41
0.2540
 70
0
  0
VERTEX
  8
51
 10
44.6430
 20
38.2220
 30
0.0000
  0
VERTEX
  8
51
 10
44.6430
 20
37.8410
 30
0.0000
  0
SEQEND
  8
0
  0
POLYLINE
  8
51
 66
1
 10
0.0000
 20
0.0000
 30
0.0000
 40
0.1270
 41
0.1270
 70
0
  0
VERTEX
  8
51
 10
44.5795
 20
37.8410
 30
0.0000
 42
1.0000
  0
VERTEX
  8
51
 10
44.7065
 20
37.8410
 30
0.0000
  0
SEQEND
  8
0
  0
POLYLINE
  8
51
 66
1
 10
0.0000
 20
0.0000
 30
0.0000
 40
0.1270
 41
0.1270
 70
0
  0
VERTEX
  8
51
 10
44.7065
 20
38.2220
 30
0.0000
 42
1.0000
  0
VERTEX
  8
51
 10
44.5795
 20
38.2220
 30
0.0000
  0
SEQEND
  8
0
  0
POLYLINE
  8
51
 66
1
 10
0.0000
 20
0.0000
 30
0.0000
 40
0.2540
 41
0.2540
 70
0
  0
VERTEX
  8
51
 10
44.6430
 20
37.8410
 30
0.0000
  0
VERTEX
  8
51
 10
42.3570
 20
37.8410
 30
0.0000
  0
SEQEND
  8
0
  0
POLYLINE
  8
51
 66
1
 10
0.0000
 20
0.0000
 30
0.0000
 40
0.1270
 41
0.1270
 70
0
  0
VERTEX
  8
51
 10
42.3570
 20
37.9045
 30
0.0000
 42
1.0000
  0
VERTEX
  8
51
 10
42.3570
 20
37.7775
 30
0.0000
  0
SEQEND
  8
0
  0
POLYLINE
  8
51
 66
1
 10
0.0000
 20
0.0000
 30
0.0000
 40
0.1270
 41
0.1270
 70
0
  0
VERTEX
  8
51
 10
44.6430
 20
37.7775
 30
0.0000
 42
1.0000
  0
VERTEX
  8
51
 10
44.6430
 20
37.9045
 30
0.0000
  0
SEQEND
  8
0
  0
POLYLINE
  8
51
 66
1
 10
0.0000
 20
0.0000
 30
0.0000
 40
0.2540
 41
0.2540
 70
0
  0
VERTEX
  8
51
 10
42.3570
 20
37.8410
 30
0.0000
  0
VERTEX
  8
51
 10
42.3570
 20
38.2220
 30
0.0000
  0
SEQEND
  8
0
  0
POLYLINE
  8
51
 66
1
 10
0.0000
 20
0.0000
 30
0.0000
 40
0.1270
 41
0.1270
 70
0
  0
VERTEX
  8
51
 10
42.4205
 20
38.2220
 30
0.0000
 42
1.0000
  0
VERTEX
  8
51
 10
42.2935
 20
38.2220
 30
0.0000
  0
SEQEND
  8
0
  0
POLYLINE
  8
51
 66
1
 10
0.0000
 20
0.0000
 30
0.0000
 40
0.1270
 41
0.1270
 70
0
  0
VERTEX
  8
51
 10
42.2935
 20
37.8410
 30
0.0000
 42
1.0000
  0
VERTEX
  8
51
 10
42.4205
 20
37.8410
 30
0.0000
  0
SEQEND
  8
0
  0
POLYLINE
  8
51
 66
1
 10
0.0000
 20
0.0000
 30
0.0000
 40
0.2540
 41
0.2540
 70
0
  0
VERTEX
  8
51
 10
42.3570
 20
38.2220
 30
0.0000
  0
VERTEX
  8
51
 10
42.3570
 20
38.6030
 30
0.0000
  0
SEQEND
  8
0
  0
POLYLINE
  8
51
 66
1
 10
0.0000
 20
0.0000
 30
0.0000
 40
0.1270
 41
0.1270
 70
0
  0
VERTEX
  8
51
 10
42.4205
 20
38.6030
 30
0.0000
 42
1.0000
  0
VERTEX
  8
51
 10
42.2935
 20
38.6030
 30
0.0000
  0
SEQEND
  8
0
  0
POLYLINE
  8
51
 66
1
 10
0.0000
 20
0.0000
 30
0.0000
 40
0.1270
 41
0.1270
 70
0
  0
VERTEX
  8
51
 10
42.2935
 20
38.2220
 30
0.0000
 42
1.0000
  0
VERTEX
  8
51
 10
42.4205
 20
38.2220
 30
0.0000
  0
SEQEND
  8
0
  0
INSERT
  8
17
  2
ROUNDP
 10
34.6100
 20
38.2220
 30
0.0000
 41
1.4080
 42
1.4080
 43
1.0000
 50
90.0000
  0
INSERT
  8
17
  2
ROUNDP
 10
34.6100
 20
38.2220
 30
0.0000
 41
1.4080
 42
1.4080
 43
1.0000
 50
90.0000
  0
INSERT
  8
17
  2
ROUNDP
 10
37.1500
 20
38.2220
 30
0.0000
 41
1.4080
 42
1.4080
 43
1.0000
 50
90.0000
  0
INSERT
  8
17
  2
ROUNDP
 10
37.1500
 20
38.2220
 30
0.0000
 41
1.4080
 42
1.4080
 43
1.0000
 50
90.0000
  0
INSERT
  8
17
  2
ROUNDP
 10
39.6900
 20
38.2220
 30
0.0000
 41
1.4080
 42
1.4080
 43
1.0000
 50
90.0000
  0
INSERT
  8
17
  2
ROUNDP
 10
39.6900
 20
38.2220
 30
0.0000
 41
1.4080
 42
1.4080
 43
1.0000
 50
90.0000
  0
INSERT
  8
17
  2
ROUNDP
 10
42.2300
 20
38.2220
 30
0.0000
 41
1.4080
 42
1.4080
 43
1.0000
 50
90.0000
  0
INSERT
  8
17
  2
ROUNDP
 10
42.2300
 20
38.2220
 30
0.0000
 41
1.4080
 42
1.4080
 43
1.0000
 50
90.0000
  0
INSERT
  8
17
  2
ROUNDP
 10
44.7700
 20
38.2220
 30
0.0000
 41
1.4080
 42
1.4080
 43
1.0000
 50
90.0000
  0
INSERT
  8
17
  2
ROUNDP
 10
44.7700
 20
38.2220
 30
0.0000
 41
1.4080
 42
1.4080
 43
1.0000
 50
90.0000
  0
INSERT
  8
17
  2
ROUNDP
 10
47.3100
 20
38.2220
 30
0.0000
 41
1.4080
 42
1.4080
 43
1.0000
 50
90.0000
  0
INSERT
  8
17
  2
ROUNDP
 10
47.3100
 20
38.2220
 30
0.0000
 41
1.4080
 42
1.4080
 43
1.0000
 50
90.0000
  0
INSERT
  8
17
  2
ROUNDP
 10
49.8500
 20
38.2220
 30
0.0000
 41
1.4080
 42
1.4080
 43
1.0000
 50
90.0000
  0
INSERT
  8
17
  2
ROUNDP
 10
49.8500
 20
38.2220
 30
0.0000
 41
1.4080
 42
1.4080
 43
1.0000
 50
90.0000
  0
INSERT
  8
17
  2
ROUNDP
 10
52.3900
 20
38.2220
 30
0.0000
 41
1.4080
 42
1.4080
 43
1.0000
 50
90.0000
  0
INSERT
  8
17
  2
ROUNDP
 10
52.3900
 20
38.2220
 30
0.0000
 41
1.4080
 42
1.4080
 43
1.0000
 50
90.0000
  0
POLYLINE
  8
21
 66
1
 10
0.0000
 20
0.0000
 30
0.0000
 40
0.2540
 41
0.2540
 70
0
  0
VERTEX
  8
21
 10
53.1520
 20
35.9840
 30
0.0000
  0
VERTEX
  8
21
 10
33.8480
 20
35.9840
 30
0.0000
  0
SEQEND
  8
0
  0
POLYLINE
  8
21
 66
1
 10
0.0000
 20
0.0000
 30
0.0000
 40
0.1270
 41
0.1270
 70
0
  0
VERTEX
  8
21
 10
33.8480
 20
36.0475
 30
0.0000
 42
1.0000
  0
VERTEX
  8
21
 10
33.8480
 20
35.9205
 30
0.0000
  0
SEQEND
  8
0
  0
POLYLINE
  8
21
 66
1
 10
0.0000
 20
0.0000
 30
0.0000
 40
0.1270
 41
0.1270
 70
0
  0
VERTEX
  8
21
 10
53.1520
 20
35.9205
 30
0.0000
 42
1.0000
  0
VERTEX
  8
21
 10
53.1520
 20
36.0475
 30
0.0000
  0
SEQEND
  8
0
  0
POLYLINE
  8
21
 66
1
 10
0.0000
 20
0.0000
 30
0.0000
 40
0.2540
 41
0.2540
 70
0
  0
VERTEX
  8
21
 10
33.8480
 20
33.9520
 30
0.0000
  0
VERTEX
  8
21
 10
53.1520
 20
33.9520
 30
0.0000
  0
SEQEND
  8
0
  0
POLYLINE
  8
21
 66
1
 10
0.0000
 20
0.0000
 30
0.0000
 40
0.1270
 41
0.1270
 70
0
  0
VERTEX
  8
21
 10
53.1520
 20
33.8885
 30
0.0000
 42
1.0000
  0
VERTEX
  8
21
 10
53.1520
 20
34.0155
 30
0.0000
  0
SEQEND
  8
0
  0
POLYLINE
  8
21
 66
1
 10
0.0000
 20
0.0000
 30
0.0000
 40
0.1270
 41
0.1270
 70
0
  0
VERTEX
  8
21
 10
33.8480
 20
34.0155
 30
0.0000
 42
1.0000
  0
VERTEX
  8
21
 10
33.8480
 20
33.8885
 30
0.0000
  0
SEQEND
  8
0
  0
POLYLINE
  8
21
 66
1
 10
0.0000
 20
0.0000
 30
0.0000
 40
0.2540
 41
0.2540
 70
0
  0
VERTEX
  8
21
 10
53.1520
 20
33.9520
 30
0.0000
 42
0.4142
  0
VERTEX
  8
21
 10
53.6600
 20
34.4600
 30
0.0000
  0
SEQEND
  8
0
  0
POLYLINE
  8
21
 66
1
 10
0.0000
 20
0.0000
 30
0.0000
 40
0.1270
 41
0.1270
 70
0
  0
VERTEX
  8
21
 10
53.1520
 20
34.0155
 30
0.0000
 42
1.0000
  0
VERTEX
  8
21
 10
53.1520
 20
33.8885
 30
0.0000
  0
SEQEND
  8
0
  0
POLYLINE
  8
21
 66
1
 10
0.0000
 20
0.0000
 30
0.0000
 40
0.1270
 41
0.1270
 70
0
  0
VERTEX
  8
21
 10
53.7235
 20
34.4600
 30
0.0000
 42
1.0000
  0
VERTEX
  8
21
 10
53.5965
 20
34.4600
 30
0.0000
  0
SEQEND
  8
0
  0
POLYLINE
  8
21
 66
1
 10
0.0000
 20
0.0000
 30
0.0000
 40
0.2540
 41
0.2540
 70
0
  0
VERTEX
  8
21
 10
33.8480
 20
35.9840
 30
0.0000
 42
0.4142
  0
VERTEX
  8
21
 10
33.3400
 20
35.4760
 30
0.0000
  0
SEQEND
  8
0
  0
POLYLINE
  8
21
 66
1
 10
0.0000
 20
0.0000
 30
0.0000
 40
0.1270
 41
0.1270
 70
0
  0
VERTEX
  8
21
 10
33.8480
 20
35.9205
 30
0.0000
 42
1.0000
  0
VERTEX
  8
21
 10
33.8480
 20
36.0475
 30
0.0000
  0
SEQEND
  8
0
  0
POLYLINE
  8
21
 66
1
 10
0.0000
 20
0.0000
 30
0.0000
 40
0.1270
 41
0.1270
 70
0
  0
VERTEX
  8
21
 10
33.2765
 20
35.4760
 30
0.0000
 42
1.0000
  0
VERTEX
  8
21
 10
33.4035
 20
35.4760
 30
0.0000
  0
SEQEND
  8
0
  0
POLYLINE
  8
21
 66
1
 10
0.0000
 20
0.0000
 30
0.0000
 40
0.2540
 41
0.2540
 70
0
  0
VERTEX
  8
21
 10
33.3400
 20
34.4600
 30
0.0000
 42
0.4142
  0
VERTEX
  8
21
 10
33.8480
 20
33.9520
 30
0.0000
  0
SEQEND
  8
0
  0
POLYLINE
  8
21
 66
1
 10
0.0000
 20
0.0000
 30
0.0000
 40
0.1270
 41
0.1270
 70
0
  0
VERTEX
  8
21
 10
33.4035
 20
34.4600
 30
0.0000
 42
1.0000
  0
VERTEX
  8
21
 10
33.2765
 20
34.4600
 30
0.0000
  0
SEQEND
  8
0
  0
POLYLINE
  8
21
 66
1
 10
0.0000
 20
0.0000
 30
0.0000
 40
0.1270
 41
0.1270
 70
0
  0
VERTEX
  8
21
 10
33.8480
 20
33.8885
 30
0.0000
 42
1.0000
  0
VERTEX
  8
21
 10
33.8480
 20
34.0155
 30
0.0000
  0
SEQEND
  8
0
  0
POLYLINE
  8
21
 66
1
 10
0.0000
 20
0.0000
 30
0.0000
 40
0.2540
 41
0.2540
 70
0
  0
VERTEX
  8
21
 10
53.6600
 20
35.4760
 30
0.0000
 42
0.4142
  0
VERTEX
  8
21
 10
53.1520
 20
35.9840
 30
0.0000
  0
SEQEND
  8
0
  0
POLYLINE
  8
21
 66
1
 10
0.0000
 20
0.0000
 30
0.0000
 40
0.1270
 41
0.1270
 70
0
  0
VERTEX
  8
21
 10
53.5965
 20
35.4760
 30
0.0000
 42
1.0000
  0
VERTEX
  8
21
 10
53.7235
 20
35.4760
 30
0.0000
  0
SEQEND
  8
0
  0
POLYLINE
  8
21
 66
1
 10
0.0000
 20
0.0000
 30
0.0000
 40
0.1270
 41
0.1270
 70
0
  0
VERTEX
  8
21
 10
53.1520
 20
36.0475
 30
0.0000
 42
1.0000
  0
VERTEX
  8
21
 10
53.1520
 20
35.9205
 30
0.0000
  0
SEQEND
  8
0
  0
POLYLINE
  8
21
 66
1
 10
0.0000
 20
0.0000
 30
0.0000
 40
0.2540
 41
0.2540
 70
0
  0
VERTEX
  8
21
 10
33.3400
 20
34.4600
 30
0.0000
  0
VERTEX
  8
21
 10
33.3400
 20
35.4760
 30
0.0000
  0
SEQEND
  8
0
  0
POLYLINE
  8
21
 66
1
 10
0.0000
 20
0.0000
 30
0.0000
 40
0.1270
 41
0.1270
 70
0
  0
VERTEX
  8
21
 10
33.4035
 20
35.4760
 30
0.0000
 42
1.0000
  0
VERTEX
  8
21
 10
33.2765
 20
35.4760
 30
0.0000
  0
SEQEND
  8
0
  0
POLYLINE
  8
21
 66
1
 10
0.0000
 20
0.0000
 30
0.0000
 40
0.1270
 41
0.1270
 70
0
  0
VERTEX
  8
21
 10
33.2765
 20
34.4600
 30
0.0000
 42
1.0000
  0
VERTEX
  8
21
 10
33.4035
 20
34.4600
 30
0.0000
  0
SEQEND
  8
0
  0
POLYLINE
  8
21
 66
1
 10
0.0000
 20
0.0000
 30
0.0000
 40
0.2540
 41
0.2540
 70
0
  0
VERTEX
  8
21
 10
53.6600
 20
34.4600
 30
0.0000
  0
VERTEX
  8
21
 10
53.6600
 20
35.4760
 30
0.0000
  0
SEQEND
  8
0
  0
POLYLINE
  8
21
 66
1
 10
0.0000
 20
0.0000
 30
0.0000
 40
0.1270
 41
0.1270
 70
0
  0
VERTEX
  8
21
 10
53.7235
 20
35.4760
 30
0.0000
 42
1.0000
  0
VERTEX
  8
21
 10
53.5965
 20
35.4760
 30
0.0000
  0
SEQEND
  8
0
  0
POLYLINE
  8
21
 66
1
 10
0.0000
 20
0.0000
 30
0.0000
 40
0.1270
 41
0.1270
 70
0
  0
VERTEX
  8
21
 10
53.5965
 20
34.4600
 30
0.0000
 42
1.0000
  0
VERTEX
  8
21
 10
53.7235
 20
34.4600
 30
0.0000
  0
SEQEND
  8
0
  0
POLYLINE
  8
51
 66
1
 10
0.0000
 20
0.0000
 30
0.0000
 40
0.2540
 41
0.2540
 70
0
  0
VERTEX
  8
51
 10
45.2780
 20
34.9680
 30
0.0000
  0
VERTEX
  8
51
 10
44.6430
 20
34.9680
 30
0.0000
  0
SEQEND
  8
0
  0
POLYLINE
  8
51
 66
1
 10
0.0000
 20
0.0000
 30
0.0000
 40
0.1270
 41
0.1270
 70
0
  0
VERTEX
  8
51
 10
44.6430
 20
35.0315
 30
0.0000
 42
1.0000
  0
VERTEX
  8
51
 10
44.6430
 20
34.9045
 30
0.0000
  0
SEQEND
  8
0
  0
POLYLINE
  8
51
 66
1
 10
0.0000
 20
0.0000
 30
0.0000
 40
0.1270
 41
0.1270
 70
0
  0
VERTEX
  8
51
 10
45.2780
 20
34.9045
 30
0.0000
 42
1.0000
  0
VERTEX
  8
51
 10
45.2780
 20
35.0315
 30
0.0000
  0
SEQEND
  8
0
  0
POLYLINE
  8
51
 66
1
 10
0.0000
 20
0.0000
 30
0.0000
 40
0.2540
 41
0.2540
 70
0
  0
VERTEX
  8
51
 10
41.7220
 20
34.9680
 30
0.0000
  0
VERTEX
  8
51
 10
42.3570
 20
34.9680
 30
0.0000
  0
SEQEND
  8
0
  0
POLYLINE
  8
51
 66
1
 10
0.0000
 20
0.0000
 30
0.0000
 40
0.1270
 41
0.1270
 70
0
  0
VERTEX
  8
51
 10
42.3570
 20
34.9045
 30
0.0000
 42
1.0000
  0
VERTEX
  8
51
 10
42.3570
 20
35.0315
 30
0.0000
  0
SEQEND
  8
0
  0
POLYLINE
  8
51
 66
1
 10
0.0000
 20
0.0000
 30
0.0000
 40
0.1270
 41
0.1270
 70
0
  0
VERTEX
  8
51
 10
41.7220
 20
35.0315
 30
0.0000
 42
1.0000
  0
VERTEX
  8
51
 10
41.7220
 20
34.9045
 30
0.0000
  0
SEQEND
  8
0
  0
POLYLINE
  8
51
 66
1
 10
0.0000
 20
0.0000
 30
0.0000
 40
0.2540
 41
0.2540
 70
0
  0
VERTEX
  8
51
 10
44.6430
 20
34.5870
 30
0.0000
  0
VERTEX
  8
51
 10
42.3570
 20
34.5870
 30
0.0000
  0
SEQEND
  8
0
  0
POLYLINE
  8
51
 66
1
 10
0.0000
 20
0.0000
 30
0.0000
 40
0.1270
 41
0.1270
 70
0
  0
VERTEX
  8
51
 10
42.3570
 20
34.6505
 30
0.0000
 42
1.0000
  0
VERTEX
  8
51
 10
42.3570
 20
34.5235
 30
0.0000
  0
SEQEND
  8
0
  0
POLYLINE
  8
51
 66
1
 10
0.0000
 20
0.0000
 30
0.0000
 40
0.1270
 41
0.1270
 70
0
  0
VERTEX
  8
51
 10
44.6430
 20
34.5235
 30
0.0000
 42
1.0000
  0
VERTEX
  8
51
 10
44.6430
 20
34.6505
 30
0.0000
  0
SEQEND
  8
0
  0
POLYLINE
  8
51
 66
1
 10
0.0000
 20
0.0000
 30
0.0000
 40
0.2540
 41
0.2540
 70
0
  0
VERTEX
  8
51
 10
42.3570
 20
34.5870
 30
0.0000
  0
VERTEX
  8
51
 10
42.3570
 20
34.9680
 30
0.0000
  0
SEQEND
  8
0
  0
POLYLINE
  8
51
 66
1
 10
0.0000
 20
0.0000
 30
0.0000
 40
0.1270
 41
0.1270
 70
0
  0
VERTEX
  8
51
 10
42.4205
 20
34.9680
 30
0.0000
 42
1.0000
  0
VERTEX
  8
51
 10
42.2935
 20
34.9680
 30
0.0000
  0
SEQEND
  8
0
  0
POLYLINE
  8
51
 66
1
 10
0.0000
 20
0.0000
 30
0.0000
 40
0.1270
 41
0.1270
 70
0
  0
VERTEX
  8
51
 10
42.2935
 20
34.5870
 30
0.0000
 42
1.0000
  0
VERTEX
  8
51
 10
42.4205
 20
34.5870
 30
0.0000
  0
SEQEND
  8
0
  0
POLYLINE
  8
51
 66
1
 10
0.0000
 20
0.0000
 30
0.0000
 40
0.2540
 41
0.2540
 70
0
  0
VERTEX
  8
51
 10
42.3570
 20
34.9680
 30
0.0000
  0
VERTEX
  8
51
 10
42.3570
 20
35.3490
 30
0.0000
  0
SEQEND
  8
0
  0
POLYLINE
  8
51
 66
1
 10
0.0000
 20
0.0000
 30
0.0000
 40
0.1270
 41
0.1270
 70
0
  0
VERTEX
  8
51
 10
42.4205
 20
35.3490
 30
0.0000
 42
1.0000
  0
VERTEX
  8
51
 10
42.2935
 20
35.3490
 30
0.0000
  0
SEQEND
  8
0
  0
POLYLINE
  8
51
 66
1
 10
0.0000
 20
0.0000
 30
0.0000
 40
0.1270
 41
0.1270
 70
0
  0
VERTEX
  8
51
 10
42.2935
 20
34.9680
 30
0.0000
 42
1.0000
  0
VERTEX
  8
51
 10
42.4205
 20
34.9680
 30
0.0000
  0
SEQEND
  8
0
  0
POLYLINE
  8
51
 66
1
 10
0.0000
 20
0.0000
 30
0.0000
 40
0.2540
 41
0.2540
 70
0
  0
VERTEX
  8
51
 10
42.3570
 20
35.3490
 30
0.0000
  0
VERTEX
  8
51
 10
44.6430
 20
35.3490
 30
0.0000
  0
SEQEND
  8
0
  0
POLYLINE
  8
51
 66
1
 10
0.0000
 20
0.0000
 30
0.0000
 40
0.1270
 41
0.1270
 70
0
  0
VERTEX
  8
51
 10
44.6430
 20
35.2855
 30
0.0000
 42
1.0000
  0
VERTEX
  8
51
 10
44.6430
 20
35.4125
 30
0.0000
  0
SEQEND
  8
0
  0
POLYLINE
  8
51
 66
1
 10
0.0000
 20
0.0000
 30
0.0000
 40
0.1270
 41
0.1270
 70
0
  0
VERTEX
  8
51
 10
42.3570
 20
35.4125
 30
0.0000
 42
1.0000
  0
VERTEX
  8
51
 10
42.3570
 20
35.2855
 30
0.0000
  0
SEQEND
  8
0
  0
POLYLINE
  8
51
 66
1
 10
0.0000
 20
0.0000
 30
0.0000
 40
0.2540
 41
0.2540
 70
0
  0
VERTEX
  8
51
 10
44.6430
 20
35.3490
 30
0.0000
  0
VERTEX
  8
51
 10
44.6430
 20
34.9680
 30
0.0000
  0
SEQEND
  8
0
  0
POLYLINE
  8
51
 66
1
 10
0.0000
 20
0.0000
 30
0.0000
 40
0.1270
 41
0.1270
 70
0
  0
VERTEX
  8
51
 10
44.5795
 20
34.9680
 30
0.0000
 42
1.0000
  0
VERTEX
  8
51
 10
44.7065
 20
34.9680
 30
0.0000
  0
SEQEND
  8
0
  0
POLYLINE
  8
51
 66
1
 10
0.0000
 20
0.0000
 30
0.0000
 40
0.1270
 41
0.1270
 70
0
  0
VERTEX
  8
51
 10
44.7065
 20
35.3490
 30
0.0000
 42
1.0000
  0
VERTEX
  8
51
 10
44.5795
 20
35.3490
 30
0.0000
  0
SEQEND
  8
0
  0
POLYLINE
  8
51
 66
1
 10
0.0000
 20
0.0000
 30
0.0000
 40
0.2540
 41
0.2540
 70
0
  0
VERTEX
  8
51
 10
44.6430
 20
34.9680
 30
0.0000
  0
VERTEX
  8
51
 10
44.6430
 20
34.5870
 30
0.0000
  0
SEQEND
  8
0
  0
POLYLINE
  8
51
 66
1
 10
0.0000
 20
0.0000
 30
0.0000
 40
0.1270
 41
0.1270
 70
0
  0
VERTEX
  8
51
 10
44.5795
 20
34.5870
 30
0.0000
 42
1.0000
  0
VERTEX
  8
51
 10
44.7065
 20
34.5870
 30
0.0000
  0
SEQEND
  8
0
  0
POLYLINE
  8
51
 66
1
 10
0.0000
 20
0.0000
 30
0.0000
 40
0.1270
 41
0.1270
 70
0
  0
VERTEX
  8
51
 10
44.7065
 20
34.9680
 30
0.0000
 42
1.0000
  0
VERTEX
  8
51
 10
44.5795
 20
34.9680
 30
0.0000
  0
SEQEND
  8
0
  0
INSERT
  8
17
  2
ROUNDP
 10
52.3900
 20
34.9680
 30
0.0000
 41
1.4080
 42
1.4080
 43
1.0000
 50
270.0000
  0
INSERT
  8
17
  2
ROUNDP
 10
52.3900
 20
34.9680
 30
0.0000
 41
1.4080
 42
1.4080
 43
1.0000
 50
270.0000
  0
INSERT
  8
17
  2
ROUNDP
 10
49.8500
 20
34.9680
 30
0.0000
 41
1.4080
 42
1.4080
 43
1.0000
 50
270.0000
  0
INSERT
  8
17
  2
ROUNDP
 10
49.8500
 20
34.9680
 30
0.0000
 41
1.4080
 42
1.4080
 43
1.0000
 50
270.0000
  0
INSERT
  8
17
  2
ROUNDP
 10
47.3100
 20
34.9680
 30
0.0000
 41
1.4080
 42
1.4080
 43
1.0000
 50
270.0000
  0
INSERT
  8
17
  2
ROUNDP
 10
47.3100
 20
34.9680
 30
0.0000
 41
1.4080
 42
1.4080
 43
1.0000
 50
270.0000
  0
INSERT
  8
17
  2
ROUNDP
 10
44.7700
 20
34.9680
 30
0.0000
 41
1.4080
 42
1.4080
 43
1.0000
 50
270.0000
  0
INSERT
  8
17
  2
ROUNDP
 10
44.7700
 20
34.9680
 30
0.0000
 41
1.4080
 42
1.4080
 43
1.0000
 50
270.0000
  0
INSERT
  8
17
  2
ROUNDP
 10
42.2300
 20
34.9680
 30
0.0000
 41
1.4080
 42
1.4080
 43
1.0000
 50
270.0000
  0
INSERT
  8
17
  2
ROUNDP
 10
42.2300
 20
34.9680
 30
0.0000
 41
1.4080
 42
1.4080
 43
1.0000
 50
270.0000
  0
INSERT
  8
17
  2
ROUNDP
 10
39.6900
 20
34.9680
 30
0.0000
 41
1.4080
 42
1.4080
 43
1.0000
 50
270.0000
  0
INSERT
  8
17
  2
ROUNDP
 10
39.6900
 20
34.9680
 30
0.0000
 41
1.4080
 42
1.4080
 43
1.0000
 50
270.0000
  0
INSERT
  8
17
  2
ROUNDP
 10
37.1500
 20
34.9680
 30
0.0000
 41
1.4080
 42
1.4080
 43
1.0000
 50
270.0000
  0
INSERT
  8
17
  2
ROUNDP
 10
37.1500
 20
34.9680
 30
0.0000
 41
1.4080
 42
1.4080
 43
1.0000
 50
270.0000
  0
INSERT
  8
17
  2
ROUNDP
 10
34.6100
 20
34.9680
 30
0.0000
 41
1.4080
 42
1.4080
 43
1.0000
 50
270.0000
  0
INSERT
  8
17
  2
ROUNDP
 10
34.6100
 20
34.9680
 30
0.0000
 41
1.4080
 42
1.4080
 43
1.0000
 50
270.0000
  0
POLYLINE
  8
21
 66
1
 10
0.0000
 20
0.0000
 30
0.0000
 40
0.2540
 41
0.2540
 70
0
  0
VERTEX
  8
21
 10
32.5680
 20
39.1990
 30
0.0000
  0
VERTEX
  8
21
 10
12.2480
 20
39.1990
 30
0.0000
  0
SEQEND
  8
0
  0
POLYLINE
  8
21
 66
1
 10
0.0000
 20
0.0000
 30
0.0000
 40
0.1270
 41
0.1270
 70
0
  0
VERTEX
  8
21
 10
12.2480
 20
39.2625
 30
0.0000
 42
1.0000
  0
VERTEX
  8
21
 10
12.2480
 20
39.1355
 30
0.0000
  0
SEQEND
  8
0
  0
POLYLINE
  8
21
 66
1
 10
0.0000
 20
0.0000
 30
0.0000
 40
0.1270
 41
0.1270
 70
0
  0
VERTEX
  8
21
 10
32.5680
 20
39.1355
 30
0.0000
 42
1.0000
  0
VERTEX
  8
21
 10
32.5680
 20
39.2625
 30
0.0000
  0
SEQEND
  8
0
  0
POLYLINE
  8
21
 66
1
 10
0.0000
 20
0.0000
 30
0.0000
 40
0.2540
 41
0.2540
 70
0
  0
VERTEX
  8
21
 10
12.2480
 20
33.3570
 30
0.0000
  0
VERTEX
  8
21
 10
32.5680
 20
33.3570
 30
0.0000
  0
SEQEND
  8
0
  0
POLYLINE
  8
21
 66
1
 10
0.0000
 20
0.0000
 30
0.0000
 40
0.1270
 41
0.1270
 70
0
  0
VERTEX
  8
21
 10
32.5680
 20
33.2935
 30
0.0000
 42
1.0000
  0
VERTEX
  8
21
 10
32.5680
 20
33.4205
 30
0.0000
  0
SEQEND
  8
0
  0
POLYLINE
  8
21
 66
1
 10
0.0000
 20
0.0000
 30
0.0000
 40
0.1270
 41
0.1270
 70
0
  0
VERTEX
  8
21
 10
12.2480
 20
33.4205
 30
0.0000
 42
1.0000
  0
VERTEX
  8
21
 10
12.2480
 20
33.2935
 30
0.0000
  0
SEQEND
  8
0
  0
POLYLINE
  8
21
 66
1
 10
0.0000
 20
0.0000
 30
0.0000
 40
0.2540
 41
0.2540
 70
0
  0
VERTEX
  8
21
 10
32.5680
 20
39.1990
 30
0.0000
  0
VERTEX
  8
21
 10
32.5680
 20
33.3570
 30
0.0000
  0
SEQEND
  8
0
  0
POLYLINE
  8
21
 66
1
 10
0.0000
 20
0.0000
 30
0.0000
 40
0.1270
 41
0.1270
 70
0
  0
VERTEX
  8
21
 10
32.5045
 20
33.3570
 30
0.0000
 42
1.0000
  0
VERTEX
  8
21
 10
32.6315
 20
33.3570
 30
0.0000
  0
SEQEND
  8
0
  0
POLYLINE
  8
21
 66
1
 10
0.0000
 20
0.0000
 30
0.0000
 40
0.1270
 41
0.1270
 70
0
  0
VERTEX
  8
21
 10
32.6315
 20
39.1990
 30
0.0000
 42
1.0000
  0
VERTEX
  8
21
 10
32.5045
 20
39.1990
 30
0.0000
  0
SEQEND
  8
0
  0
POLYLINE
  8
21
 66
1
 10
0.0000
 20
0.0000
 30
0.0000
 40
0.2540
 41
0.2540
 70
0
  0
VERTEX
  8
21
 10
12.2480
 20
39.1990
 30
0.0000
  0
VERTEX
  8
21
 10
12.2480
 20
37.2940
 30
0.0000
  0
SEQEND
  8
0
  0
POLYLINE
  8
21
 66
1
 10
0.0000
 20
0.0000
 30
0.0000
 40
0.1270
 41
0.1270
 70
0
  0
VERTEX
  8
21
 10
12.1845
 20
37.2940
 30
0.0000
 42
1.0000
  0
VERTEX
  8
21
 10
12.3115
 20
37.2940
 30
0.0000
  0
SEQEND
  8
0
  0
POLYLINE
  8
21
 66
1
 10
0.0000
 20
0.0000
 30
0.0000
 40
0.1270
 41
0.1270
 70
0
  0
VERTEX
  8
21
 10
12.3115
 20
39.1990
 30
0.0000
 42
1.0000
  0
VERTEX
  8
21
 10
12.1845
 20
39.1990
 30
0.0000
  0
SEQEND
  8
0
  0
POLYLINE
  8
21
 66
1
 10
0.0000
 20
0.0000
 30
0.0000
 40
0.2540
 41
0.2540
 70
0
  0
VERTEX
  8
21
 10
12.2480
 20
33.3570
 30
0.0000
  0
VERTEX
  8
21
 10
12.2480
 20
35.2620
 30
0.0000
  0
SEQEND
  8
0
  0
POLYLINE
  8
21
 66
1
 10
0.0000
 20
0.0000
 30
0.0000
 40
0.1270
 41
0.1270
 70
0
  0
VERTEX
  8
21
 10
12.3115
 20
35.2620
 30
0.0000
 42
1.0000
  0
VERTEX
  8
21
 10
12.1845
 20
35.2620
 30
0.0000
  0
SEQEND
  8
0
  0
POLYLINE
  8
21
 66
1
 10
0.0000
 20
0.0000
 30
0.0000
 40
0.1270
 41
0.1270
 70
0
  0
VERTEX
  8
21
 10
12.1845
 20
33.3570
 30
0.0000
 42
1.0000
  0
VERTEX
  8
21
 10
12.3115
 20
33.3570
 30
0.0000
  0
SEQEND
  8
0
  0
POLYLINE
  8
21
 66
1
 10
0.0000
 20
0.0000
 30
0.0000
 40
0.2540
 41
0.2540
 70
0
  0
VERTEX
  8
21
 10
12.2480
 20
35.2620
 30
0.0000
 42
1.0000
  0
VERTEX
  8
21
 10
12.2480
 20
37.2940
 30
0.0000
  0
SEQEND
  8
0
  0
POLYLINE
  8
21
 66
1
 10
0.0000
 20
0.0000
 30
0.0000
 40
0.1270
 41
0.1270
 70
0
  0
VERTEX
  8
21
 10
12.2480
 20
35.3255
 30
0.0000
 42
1.0000
  0
VERTEX
  8
21
 10
12.2480
 20
35.1985
 30
0.0000
  0
SEQEND
  8
0
  0
POLYLINE
  8
21
 66
1
 10
0.0000
 20
0.0000
 30
0.0000
 40
0.1270
 41
0.1270
 70
0
  0
VERTEX
  8
21
 10
12.2480
 20
37.3575
 30
0.0000
 42
1.0000
  0
VERTEX
  8
21
 10
12.2480
 20
37.2305
 30
0.0000
  0
SEQEND
  8
0
  0
INSERT
  8
17
  2
ROUNDP
 10
13.5180
 20
32.4680
 30
0.0000
 41
1.4080
 42
1.4080
 43
1.0000
 50
90.0000
  0
INSERT
  8
17
  2
ROUNDP
 10
13.5180
 20
32.4680
 30
0.0000
 41
1.4080
 42
1.4080
 43
1.0000
 50
90.0000
  0
INSERT
  8
17
  2
ROUNDP
 10
16.0580
 20
32.4680
 30
0.0000
 41
1.4080
 42
1.4080
 43
1.0000
 50
90.0000
  0
INSERT
  8
17
  2
ROUNDP
 10
16.0580
 20
32.4680
 30
0.0000
 41
1.4080
 42
1.4080
 43
1.0000
 50
90.0000
  0
INSERT
  8
17
  2
ROUNDP
 10
18.5980
 20
32.4680
 30
0.0000
 41
1.4080
 42
1.4080
 43
1.0000
 50
90.0000
  0
INSERT
  8
17
  2
ROUNDP
 10
18.5980
 20
32.4680
 30
0.0000
 41
1.4080
 42
1.4080
 43
1.0000
 50
90.0000
  0
INSERT
  8
17
  2
ROUNDP
 10
21.1380
 20
32.4680
 30
0.0000
 41
1.4080
 42
1.4080
 43
1.0000
 50
90.0000
  0
INSERT
  8
17
  2
ROUNDP
 10
21.1380
 20
32.4680
 30
0.0000
 41
1.4080
 42
1.4080
 43
1.0000
 50
90.0000
  0
INSERT
  8
17
  2
ROUNDP
 10
23.6780
 20
32.4680
 30
0.0000
 41
1.4080
 42
1.4080
 43
1.0000
 50
90.0000
  0
INSERT
  8
17
  2
ROUNDP
 10
23.6780
 20
32.4680
 30
0.0000
 41
1.4080
 42
1.4080
 43
1.0000
 50
90.0000
  0
INSERT
  8
17
  2
ROUNDP
 10
26.2180
 20
32.4680
 30
0.0000
 41
1.4080
 42
1.4080
 43
1.0000
 50
90.0000
  0
INSERT
  8
17
  2
ROUNDP
 10
26.2180
 20
32.4680
 30
0.0000
 41
1.4080
 42
1.4080
 43
1.0000
 50
90.0000
  0
INSERT
  8
17
  2
ROUNDP
 10
28.7580
 20
32.4680
 30
0.0000
 41
1.4080
 42
1.4080
 43
1.0000
 50
90.0000
  0
INSERT
  8
17
  2
ROUNDP
 10
28.7580
 20
32.4680
 30
0.0000
 41
1.4080
 42
1.4080
 43
1.0000
 50
90.0000
  0
INSERT
  8
17
  2
ROUNDP
 10
31.2980
 20
32.4680
 30
0.0000
 41
1.4080
 42
1.4080
 43
1.0000
 50
90.0000
  0
INSERT
  8
17
  2
ROUNDP
 10
31.2980
 20
32.4680
 30
0.0000
 41
1.4080
 42
1.4080
 43
1.0000
 50
90.0000
  0
INSERT
  8
17
  2
ROUNDP
 10
31.2980
 20
40.0880
 30
0.0000
 41
1.4080
 42
1.4080
 43
1.0000
 50
90.0000
  0
INSERT
  8
17
  2
ROUNDP
 10
31.2980
 20
40.0880
 30
0.0000
 41
1.4080
 42
1.4080
 43
1.0000
 50
90.0000
  0
INSERT
  8
17
  2
ROUNDP
 10
28.7580
 20
40.0880
 30
0.0000
 41
1.4080
 42
1.4080
 43
1.0000
 50
90.0000
  0
INSERT
  8
17
  2
ROUNDP
 10
28.7580
 20
40.0880
 30
0.0000
 41
1.4080
 42
1.4080
 43
1.0000
 50
90.0000
  0
INSERT
  8
17
  2
ROUNDP
 10
26.2180
 20
40.0880
 30
0.0000
 41
1.4080
 42
1.4080
 43
1.0000
 50
90.0000
  0
INSERT
  8
17
  2
ROUNDP
 10
26.2180
 20
40.0880
 30
0.0000
 41
1.4080
 42
1.4080
 43
1.0000
 50
90.0000
  0
INSERT
  8
17
  2
ROUNDP
 10
23.6780
 20
40.0880
 30
0.0000
 41
1.4080
 42
1.4080
 43
1.0000
 50
90.0000
  0
INSERT
  8
17
  2
ROUNDP
 10
23.6780
 20
40.0880
 30
0.0000
 41
1.4080
 42
1.4080
 43
1.0000
 50
90.0000
  0
INSERT
  8
17
  2
ROUNDP
 10
21.1380
 20
40.0880
 30
0.0000
 41
1.4080
 42
1.4080
 43
1.0000
 50
90.0000
  0
INSERT
  8
17
  2
ROUNDP
 10
21.1380
 20
40.0880
 30
0.0000
 41
1.4080
 42
1.4080
 43
1.0000
 50
90.0000
  0
INSERT
  8
17
  2
ROUNDP
 10
18.5980
 20
40.0880
 30
0.0000
 41
1.4080
 42
1.4080
 43
1.0000
 50
90.0000
  0
INSERT
  8
17
  2
ROUNDP
 10
18.5980
 20
40.0880
 30
0.0000
 41
1.4080
 42
1.4080
 43
1.0000
 50
90.0000
  0
INSERT
  8
17
  2
ROUNDP
 10
16.0580
 20
40.0880
 30
0.0000
 41
1.4080
 42
1.4080
 43
1.0000
 50
90.0000
  0
INSERT
  8
17
  2
ROUNDP
 10
16.0580
 20
40.0880
 30
0.0000
 41
1.4080
 42
1.4080
 43
1.0000
 50
90.0000
  0
INSERT
  8
17
  2
ROUNDP
 10
13.5180
 20
40.0880
 30
0.0000
 41
1.4080
 42
1.4080
 43
1.0000
 50
90.0000
  0
INSERT
  8
17
  2
ROUNDP
 10
13.5180
 20
40.0880
 30
0.0000
 41
1.4080
 42
1.4080
 43
1.0000
 50
90.0000
  0
POLYLINE
  8
21
 66
1
 10
0.0000
 20
0.0000
 30
0.0000
 40
0.2540
 41
0.2540
 70
0
  0
VERTEX
  8
21
 10
14.7740
 20
10.1260
 30
0.0000
  0
VERTEX
  8
21
 10
14.7740
 20
5.0460
 30
0.0000
  0
SEQEND
  8
0
  0
POLYLINE
  8
21
 66
1
 10
0.0000
 20
0.0000
 30
0.0000
 40
0.1270
 41
0.1270
 70
0
  0
VERTEX
  8
21
 10
14.7105
 20
5.0460
 30
0.0000
 42
1.0000
  0
VERTEX
  8
21
 10
14.8375
 20
5.0460
 30
0.0000
  0
SEQEND
  8
0
  0
POLYLINE
  8
21
 66
1
 10
0.0000
 20
0.0000
 30
0.0000
 40
0.1270
 41
0.1270
 70
0
  0
VERTEX
  8
21
 10
14.8375
 20
10.1260
 30
0.0000
 42
1.0000
  0
VERTEX
  8
21
 10
14.7105
 20
10.1260
 30
0.0000
  0
SEQEND
  8
0
  0
POLYLINE
  8
21
 66
1
 10
0.0000
 20
0.0000
 30
0.0000
 40
0.2540
 41
0.2540
 70
0
  0
VERTEX
  8
21
 10
14.7740
 20
5.0460
 30
0.0000
  0
VERTEX
  8
21
 10
25.4420
 20
5.0460
 30
0.0000
  0
SEQEND
  8
0
  0
POLYLINE
  8
21
 66
1
 10
0.0000
 20
0.0000
 30
0.0000
 40
0.1270
 41
0.1270
 70
0
  0
VERTEX
  8
21
 10
25.4420
 20
4.9825
 30
0.0000
 42
1.0000
  0
VERTEX
  8
21
 10
25.4420
 20
5.1095
 30
0.0000
  0
SEQEND
  8
0
  0
POLYLINE
  8
21
 66
1
 10
0.0000
 20
0.0000
 30
0.0000
 40
0.1270
 41
0.1270
 70
0
  0
VERTEX
  8
21
 10
14.7740
 20
5.1095
 30
0.0000
 42
1.0000
  0
VERTEX
  8
21
 10
14.7740
 20
4.9825
 30
0.0000
  0
SEQEND
  8
0
  0
POLYLINE
  8
21
 66
1
 10
0.0000
 20
0.0000
 30
0.0000
 40
0.2540
 41
0.2540
 70
0
  0
VERTEX
  8
21
 10
25.4420
 20
5.0460
 30
0.0000
  0
VERTEX
  8
21
 10
25.4420
 20
10.1260
 30
0.0000
  0
SEQEND
  8
0
  0
POLYLINE
  8
21
 66
1
 10
0.0000
 20
0.0000
 30
0.0000
 40
0.1270
 41
0.1270
 70
0
  0
VERTEX
  8
21
 10
25.5055
 20
10.1260
 30
0.0000
 42
1.0000
  0
VERTEX
  8
21
 10
25.3785
 20
10.1260
 30
0.0000
  0
SEQEND
  8
0
  0
POLYLINE
  8
21
 66
1
 10
0.0000
 20
0.0000
 30
0.0000
 40
0.1270
 41
0.1270
 70
0
  0
VERTEX
  8
21
 10
25.3785
 20
5.0460
 30
0.0000
 42
1.0000
  0
VERTEX
  8
21
 10
25.5055
 20
5.0460
 30
0.0000
  0
SEQEND
  8
0
  0
POLYLINE
  8
21
 66
1
 10
0.0000
 20
0.0000
 30
0.0000
 40
0.2540
 41
0.2540
 70
0
  0
VERTEX
  8
21
 10
25.4420
 20
10.1260
 30
0.0000
  0
VERTEX
  8
21
 10
14.7740
 20
10.1260
 30
0.0000
  0
SEQEND
  8
0
  0
POLYLINE
  8
21
 66
1
 10
0.0000
 20
0.0000
 30
0.0000
 40
0.1270
 41
0.1270
 70
0
  0
VERTEX
  8
21
 10
14.7740
 20
10.1895
 30
0.0000
 42
1.0000
  0
VERTEX
  8
21
 10
14.7740
 20
10.0625
 30
0.0000
  0
SEQEND
  8
0
  0
POLYLINE
  8
21
 66
1
 10
0.0000
 20
0.0000
 30
0.0000
 40
0.1270
 41
0.1270
 70
0
  0
VERTEX
  8
21
 10
25.4420
 20
10.0625
 30
0.0000
 42
1.0000
  0
VERTEX
  8
21
 10
25.4420
 20
10.1895
 30
0.0000
  0
SEQEND
  8
0
  0
POLYLINE
  8
21
 66
1
 10
0.0000
 20
0.0000
 30
0.0000
 40
0.2540
 41
0.2540
 70
0
  0
VERTEX
  8
21
 10
22.6480
 20
5.6810
 30
0.0000
 42
1.0000
  0
VERTEX
  8
21
 10
22.6480
 20
9.4910
 30
0.0000
  0
SEQEND
  8
0
  0
POLYLINE
  8
21
 66
1
 10
0.0000
 20
0.0000
 30
0.0000
 40
0.1270
 41
0.1270
 70
0
  0
VERTEX
  8
21
 10
22.6480
 20
5.7445
 30
0.0000
 42
1.0000
  0
VERTEX
  8
21
 10
22.6480
 20
5.6175
 30
0.0000
  0
SEQEND
  8
0
  0
POLYLINE
  8
21
 66
1
 10
0.0000
 20
0.0000
 30
0.0000
 40
0.1270
 41
0.1270
 70
0
  0
VERTEX
  8
21
 10
22.6480
 20
9.5545
 30
0.0000
 42
1.0000
  0
VERTEX
  8
21
 10
22.6480
 20
9.4275
 30
0.0000
  0
SEQEND
  8
0
  0
POLYLINE
  8
21
 66
1
 10
0.0000
 20
0.0000
 30
0.0000
 40
0.2540
 41
0.2540
 70
0
  0
VERTEX
  8
21
 10
17.5680
 20
9.4910
 30
0.0000
 42
1.0000
  0
VERTEX
  8
21
 10
17.5680
 20
5.6810
 30
0.0000
  0
SEQEND
  8
0
  0
POLYLINE
  8
21
 66
1
 10
0.0000
 20
0.0000
 30
0.0000
 40
0.1270
 41
0.1270
 70
0
  0
VERTEX
  8
21
 10
17.5680
 20
9.4275
 30
0.0000
 42
1.0000
  0
VERTEX
  8
21
 10
17.5680
 20
9.5545
 30
0.0000
  0
SEQEND
  8
0
  0
POLYLINE
  8
21
 66
1
 10
0.0000
 20
0.0000
 30
0.0000
 40
0.1270
 41
0.1270
 70
0
  0
VERTEX
  8
21
 10
17.5680
 20
5.6175
 30
0.0000
 42
1.0000
  0
VERTEX
  8
21
 10
17.5680
 20
5.7445
 30
0.0000
  0
SEQEND
  8
0
  0
POLYLINE
  8
21
 66
1
 10
0.0000
 20
0.0000
 30
0.0000
 40
0.2540
 41
0.2540
 70
0
  0
VERTEX
  8
21
 10
17.5680
 20
9.4910
 30
0.0000
  0
VERTEX
  8
21
 10
22.6480
 20
9.4910
 30
0.0000
  0
SEQEND
  8
0
  0
POLYLINE
  8
21
 66
1
 10
0.0000
 20
0.0000
 30
0.0000
 40
0.1270
 41
0.1270
 70
0
  0
VERTEX
  8
21
 10
22.6480
 20
9.4275
 30
0.0000
 42
1.0000
  0
VERTEX
  8
21
 10
22.6480
 20
9.5545
 30
0.0000
  0
SEQEND
  8
0
  0
POLYLINE
  8
21
 66
1
 10
0.0000
 20
0.0000
 30
0.0000
 40
0.1270
 41
0.1270
 70
0
  0
VERTEX
  8
21
 10
17.5680
 20
9.5545
 30
0.0000
 42
1.0000
  0
VERTEX
  8
21
 10
17.5680
 20
9.4275
 30
0.0000
  0
SEQEND
  8
0
  0
POLYLINE
  8
21
 66
1
 10
0.0000
 20
0.0000
 30
0.0000
 40
0.2540
 41
0.2540
 70
0
  0
VERTEX
  8
21
 10
22.6480
 20
5.6810
 30
0.0000
  0
VERTEX
  8
21
 10
17.5680
 20
5.6810
 30
0.0000
  0
SEQEND
  8
0
  0
POLYLINE
  8
21
 66
1
 10
0.0000
 20
0.0000
 30
0.0000
 40
0.1270
 41
0.1270
 70
0
  0
VERTEX
  8
21
 10
17.5680
 20
5.7445
 30
0.0000
 42
1.0000
  0
VERTEX
  8
21
 10
17.5680
 20
5.6175
 30
0.0000
  0
SEQEND
  8
0
  0
POLYLINE
  8
21
 66
1
 10
0.0000
 20
0.0000
 30
0.0000
 40
0.1270
 41
0.1270
 70
0
  0
VERTEX
  8
21
 10
22.6480
 20
5.6175
 30
0.0000
 42
1.0000
  0
VERTEX
  8
21
 10
22.6480
 20
5.7445
 30
0.0000
  0
SEQEND
  8
0
  0
INSERT
  8
17
  2
ROUNDP
 10
20.1080
 20
7.5860
 30
0.0000
 41
1.4080
 42
1.4080
 43
1.0000
 50
180.0000
  0
INSERT
  8
17
  2
ROUNDP
 10
20.1080
 20
7.5860
 30
0.0000
 41
1.4080
 42
1.4080
 43
1.0000
 50
180.0000
  0
INSERT
  8
17
  2
ROUNDP
 10
22.6480
 20
7.5860
 30
0.0000
 41
1.4080
 42
1.4080
 43
1.0000
 50
0.0000
  0
INSERT
  8
17
  2
ROUNDP
 10
22.6480
 20
7.5860
 30
0.0000
 41
1.4080
 42
1.4080
 43
1.0000
 50
0.0000
  0
INSERT
  8
17
  2
ROUNDP
 10
17.5680
 20
7.5860
 30
0.0000
 41
1.4080
 42
1.4080
 43
1.0000
 50
90.0000
  0
INSERT
  8
17
  2
ROUNDP
 10
17.5680
 20
7.5860
 30
0.0000
 41
1.4080
 42
1.4080
 43
1.0000
 50
90.0000
  0
ENDSEC
  0
EOF
